PrimaNota.ru - самый крупный в мире бесплатный архив песенных текстов, аккордов, табулатур и нот


No Bragging Rights - And They Threatened Us With Fire - таба, видео

Регистрация Запомнить меня
Войти через:  Facebook Google Twitter Vk Yandex Mail.ru

No Bragging Rights - And They Threatened Us With Fire - таба, видео

Печатать
Просмотров: 95
Уроки эстрадного вокала в Санкт-Петербурге
Song: And They Threatened Us With Fire 
Artist: No Bragging Rights
Album: Illuminator 
Year: 2010
Tuning: Drop c 




GUITAR 1



Intro:
D||-------------------|---------------------|----------------------|
A||-------------------|---------------------|---------10-----------|
F||--7----------------|---------------------|-----------------7----|
C||--x----------------|---------7-----------|--8-------------------|
G||--5----------------|---------------------|----------------------|
C||-------------------|---------------------|----------------------|


-----------------------|-------------------|---------------------|
-----------------------|-------------------|---------------------|
-----------------------|--7----------------|---------------------|
-----8------7b---------|--x----------------|------------------7--|
-----------------------|--5----------------|---------------------|
-----------------------|-------------------|---------------------|




	Verse:
                                                   PM PM    PM PM               
----------------------|----------------------|---------------------------------|
---------10-----------|--10------------------|---------------------------------|
-----------------7----|---7------------------|---------------------------------|
--8-------------------|---8------------------|---------------------------------|
----------------------|----------------------|---------------------------------|
----------------------|----------------------|--0--0--0--0--0--0--0----0----0--|


     PM PM    PM PM    PM PM             PM PM    PM PM                  
-----------------------------------|---------------------------------|
-----------------------------------|---------------------------------|
-----------------------------------|---------------------------------|
-----------------------------------|---------------------------------|
-----------------------------------|---------------------------------|
-----0--0--0--0--0--0--0--0--1b----|--0--0--0--0--0--0--0----0----0--|


     PM PM       PM PM PM    PM          PM PM    PM PM                  
-----------------------------------|---------------------------------|
-----------------------------------|---------------------------------|
-----------------------------------|---------------------------------|
-----------------------------------|---------------------------------|
-----------------------------------|---------------------------------|
-----0--0--0-1---0--0--0--1--0--1--|--0--0--0--0--0--0--0----0----0--|


     PM PM    PM PM    PM PM             PM PM    PM PM               
-----------------------------------|---------------------------------|
-----------------------------------|---------------------------------|
-----------------------------------|---------------------------------|
-----------------------------------|---------------------------------|
-----------------------------------|---------------------------------|
-----0--0--0--0--0--0--0--0--1b----|--0--0--0--0--0--0--0----0----0--|


     PM PM       PM PM PM    PM                                        
-----------------------------------|----------------------------------|
-----------------------------------|----------------------------------|
-----------------------------------|--7-7-7-7-7-7-7-7-7-7-7-7-7-7-7-7-|
-----------------------------------|--x-x-x-x-x-x-x-x-x-x-x-x-x-x-x-x-|
-----------------------------------|--5-5-5-5-5-5-5-5-5-5-5-5-5-5-5-5-|
-----0--0--0-1---0--0--0--1--0--1--|----------------------------------|


----------------------------------|----------------------------------|
----------------------------------|----------------------------------|
--7-7-7-7-7-7-7-7-7-7-7-7-7-7-7-7-|--3-3-3-3-3-3-3-3-3-3-3-3-3-3-3-3-|
--x-x-x-x-x-x-x-x-x-x-x-x-x-x-x-x-|--x-x-x-x-x-x-x-x-x-x-x-x-x-x-x-x-|
--5-5-5-5-5-5-5-5-5-5-5-5-5-5-5-5-|--1-1-1-1-1-1-1-1-1-1-1-1-1-1-1-1-|
----------------------------------|----------------------------------|


----------------------------------|
----------------------------------|
--3-3-3-3-3-3-3-3-3-3-3-3-3-3-3-3-|
--x-x-x-x-x-x-x-x-x-x-x-x-x-x-x-x-|
--1-1-1-1-1-1-1-1-1-1-1-1-1-1-1-1-|
----------------------------------|


--------------------------------------------------|
--------------------------------------------------|
--14-14-14-14-14-14-14-14-14-14-14-14-14-14-14-14-|
---x--x--x--x--x--x--x--x--x--x--x--x--x--x--x--x-|
--12-12-12-12-12-12-12-12-12-12-12-12-12-12-12-12-|
--------------------------------------------------|


--------------------------------------------------|
--------------------------------------------------|
--14-14-14-14-14-14-14-14-14-14-14-14-14-14-14-14-|
---x--x--x--x--x--x--x--x--x--x--x--x--x--x--x--x-|
--12-12-12-12-12-12-12-12-12-12-12-12-12-12-12-12-|
--------------------------------------------------|


--------------------------------------------------|
--------------------------------------------------|
--14-14-14-14-14-14-14-14-14-14-14-14-14-14-14-14-|
---x--x--x--x--x--x--x--x--x--x--x--x--x--x--x--x-|
--12-12-12-12-12-12-12-12-12-12-12-12-12-12-12-12-|
--------------------------------------------------|


--------------------------------------------------|
--------------------------------------------------|
--14-14-14-14-14-14-14-14-14-14-14-14-14-14-14-14-|
---x--x--x--x--x--x--x--x--x--x--x--x--x--x--x--x-|
--12-12-12-12-12-12-12-12-12-12-12-12-12-12-12-12-|
--------------------------------------------------|




Pre Chorus:
       PM PM PM      PM PM PM      PM PM   
--13--13-13-13--12--12-12-12------------|
------------------------------13--13-13-|
----------------------------------------|
----------------------------------------|
----------------------------------------|
----------------------------------------|


   PM      PM PM PM      PM PM     PM PM 
----------------------------------------|
--13--10--10-10-10--10--10-10-10--10-10-|
----------------------------------------|
----------------------------------------|
----------------------------------------|
----------------------------------------|


       PM PM PM      PM PM PM      PM PM    PM                              
--13--13-13-13--12--12-12-12--15--15-15-|--15--15--15--15--15s--17--17-----|
----------------------------------------|----------------------------------|
----------------------------------------|----------------------------------|
----------------------------------------|----------------------------------|
----------------------------------------|----------------------------------|
----------------------------------------|----------------------------------|




Chorus:
---------------------------|--------------------------------|
---------------------------|--------------------------------|
--7--7-7--7-7---7-7--7--7--|--9--9-9--9-12---12-12--12--10--|
--x--x-x--x-x---x-x--x--x--|--x--x-x--x--x----x--x---x---x--|
--5--5-5--5-5---5-5--5--5--|--7--7-7--7-10---10-10--10---8--|
---------------------------|--------------------------------|


------------------------------------|------------------------------------|
------------------------------------|------------------------------------|
--17--17-17--17-17---17-17--17--17--|--14--14-14--14-14---14-14--14--14--|
---x---x--x---x--x----x--x---x---x--|---x---x--x---x--x----x--x---x---x--|
--15--15-15--15-15---15-15--15--15--|--12--12-12--12-12---12-12--12--12--|
------------------------------------|------------------------------------|


------------------------------------|------------------------------------|
------------------------------------|------------------------------------|
--12--12-12--12-12---12-12--12--12--|--15--15-15--15-14---14-14--14--14--|
---x---x--x---x--x----x--x---x---x--|---x---x--x---x--x----x--x---x---x--|
--10--10-10--10-10---10-10--10--10--|--13--13-13--13-12---12-12--12--12--|
------------------------------------|------------------------------------|


------------------------------------|-----------------------------|
------------------------------------|-----------------------------|
--14--14-14--14-14---14-14--14--14--|--9--9-9---9--9--10--10--10--|
---x---x--x---x--x----x--x---x---x--|-----------------------------|
--12--12-12--12-12---12-12--12--12--|-----------------------------|
------------------------------------|-----------------------------|


---------------------------|--------------------------------|
---------------------------|--------------------------------|
--7--7-7--7-7---7-7--7--7--|--9--9-9--9-12---12-12--12--10--|
--x--x-x--x-x---x-x--x--x--|--x--x-x--x--x----x--x---x---x--|
--5--5-5--5-5---5-5--5--5--|--7--7-7--7-10---10-10--10---8--|
---------------------------|--------------------------------|

   
---------------------------|------------------------------------|
---------------------------|------------------------------------|
--9--9-9--9-9---9-9--9--9--|--10--10-10--10-10---12-12--12--12--|
--x--x-x--x-x---x-x--x--x--|---x---x--x---x--x----x--x---x---x--|
--7--7-7--7-7---7-7--7--7--|---8---8--8---8--8---10-10--10--10--|
---------------------------|------------------------------------|


--10-10-10-10-10-10-------------------8-8-8-8-|
----------------------------------------------|
--------------------12-12-12-12-12-12---------|
----------------------------------------------|
----------------------------------------------|
----------------------------------------------|


--8-8-----------------------------------|
----------------------------------------|
------10-10-10-10-10-10-9-9-9-9-9-9-9-9-|
----------------------------------------|
----------------------------------------|
----------------------------------------|

  
--10-10-10-10-10-10-------------------8-8-8-8-|
----------------------------------------------|
--------------------12-12-12-12-12-12---------|
----------------------------------------------|
----------------------------------------------|
----------------------------------------------|




	Breakdown:
                                                   PM PM PM       PM PM        
--8-8-------------------12-12-12-12-12-12-12-12-|--------------------------|
------------------------------------------------|--------------------------|
------10-10-10-10-10-10-------------------------|--------------------------|
------------------------------------------------|--------------------------|
------------------------------------------------|--0--0--0--7--7--0--0--0--|
------------------------------------------------|--0--0--0--8--8--0--0--0--|


         PM PM PM          PM PM PM       PM PM                    
------------------------|--------------------------|-----|
------------------------|--------------------------|-----|
------------------------|--------------------------|-----|
------------------------|--------------------------|-----|
---------0--0--0--0-----|--0--0--0--7--7--0--0--0--|-----|
---------0--0--0--0-----|--0--0--0--8--8--0--0--0--|-----|


  PM PM PM       PM PM              PM PM PM          PM PM PM       PM PM     
--------------------------|------------------------|--------------------------|
--------------------------|------------------------|--------------------------|
--------------------------|------------------------|--------------------------|
--------------------------|------------------------|--------------------------|
--0--0--0--7--7--0--0--0--|---------0--0--0--0-----|--0--0--0--7--7--0--0--0--|
--0--0--0--8--8--0--0--0--|---------0--0--0--0-----|--0--0--0--8--8--0--0--0--|


          PM PM PM       PM PM              PM PM PM           
-------|--------------------------|------------------------|
-------|--------------------------|------------------------|
-------|--------------------------|------------------------|
-------|--------------------------|------------------------|
-------|--0--0--0--7--7--0--0--0--|---------0--0--0--0-----|
-------|--0--0--0--8--8--0--0--0--|---------0--0--0--0-----|


  PM PM PM       PM PM                                
--------------------------|--------------------------|
--------------------------|--------------------------|
--------------------------|--------------------------|
--------------------------|--------------7-----------|
--0--0--0--7--7--0--0--0--|-----5--------------7--8--|
--0--0--0--8--8--0--0--0--|--------7--8-----8--------|


  PM PM PM       PM PM              PM PM PM          PM PM PM       PM PM     
--------------------------|------------------------|--------------------------|
--------------------------|------------------------|--------------------------|
--------------------------|------------------------|--------------------------|
--------------------------|------------------------|--------------------------|
--0--0--0--7--7--0--0--0--|---------0--0--0--0-----|--0--0--0--7--7--0--0--0--|
--0--0--0--8--8--0--0--0--|---------0--0--0--0-----|--0--0--0--8--8--0--0--0--|


                             PM PM PM       PM PM              PM PM PM        
--------------------------|--------------------------|------------------------|
--------------------------|--------------------------|------------------------|
--------------------------|--------------------------|------------------------|
--------------7-----------|--------------------------|------------------------|
-----5--------------7--8--|--0--0--0--7--7--0--0--0--|---------0--0--0--0-----|
--------7--8-----8--------|--0--0--0--8--8--0--0--0--|---------0--0--0--0-----|


  PM PM PM       PM PM                                
--------------------------|--------------------------|
--------------------------|--------------------------|
--------------------------|--------------5-----------|
--------------------------|-----3--------------5--7--|
--0--0--0--7--7--0--0--0--|--------3--5-----5--------|
--0--0--0--8--8--0--0--0--|--------------------------|


  PM PM PM       PM PM              PM PM PM          PM PM PM       PM PM        
--------------------------|------------------------|--------------------------|
--------------------------|------------------------|--------------------------|
--------------------------|------------------------|--------------------------|
--------------------------|------------------------|--------------------------|
--0--0--0--7--7--0--0--0--|---------0--0--0--0-----|--0--0--0--7--7--0--0--0--|
--0--0--0--8--8--0--0--0--|---------0--0--0--0-----|--0--0--0--8--8--0--0--0--|




	Pre Chorus:
                                  PM PM PM      PM PM PM      PM PM 
--------------------------|--13--13-13-13--12--12-12-12------------|
--------------------------|------------------------------13--13-13-|
--------------5-----------|----------------------------------------|
-----3--------------5--7--|----------------------------------------|
--------3--5-----5--------|----------------------------------------|
--------------------------|----------------------------------------|


   PM      PM PM PM      PM PM     PM PM 
----------------------------------------|
--13--10--10-10-10--10--10-10-10--10-10-|
----------------------------------------|
----------------------------------------|
----------------------------------------|
----------------------------------------|


       PM PM PM      PM PM PM      PM PM    PM                              
--13--13-13-13--12--12-12-12--15--15-15-|--15--15--15--15--15s--17--17-----|
----------------------------------------|----------------------------------|
----------------------------------------|----------------------------------|
----------------------------------------|----------------------------------|
----------------------------------------|----------------------------------|
----------------------------------------|----------------------------------|




Chorus:
---------------------------|--------------------------------|
---------------------------|--------------------------------|
--7--7-7--7-7---7-7--7--7--|--9--9-9--9-12---12-12--12--10--|
--x--x-x--x-x---x-x--x--x--|--x--x-x--x--x----x--x---x---x--|
--5--5-5--5-5---5-5--5--5--|--7--7-7--7-10---10-10--10---8--|
---------------------------|--------------------------------|


------------------------------------|------------------------------------|
------------------------------------|------------------------------------|
--17--17-17--17-17---17-17--17--17--|--14--14-14--14-14---14-14--14--14--|
---x---x--x---x--x----x--x---x---x--|---x---x--x---x--x----x--x---x---x--|
--15--15-15--15-15---15-15--15--15--|--12--12-12--12-12---12-12--12--12--|
------------------------------------|------------------------------------|


------------------------------------|------------------------------------|
------------------------------------|------------------------------------|
--12--12-12--12-12---12-12--12--12--|--15--15-15--15-14---14-14--14--14--|
---x---x--x---x--x----x--x---x---x--|---x---x--x---x--x----x--x---x---x--|
--10--10-10--10-10---10-10--10--10--|--13--13-13--13-12---12-12--12--12--|
------------------------------------|------------------------------------|


------------------------------------|-----------------------------|
------------------------------------|-----------------------------|
--14--14-14--14-14---14-14--14--14--|--9--9-9---9--9--10--10--10--|
---x---x--x---x--x----x--x---x---x--|-----------------------------|
--12--12-12--12-12---12-12--12--12--|-----------------------------|
------------------------------------|-----------------------------|


---------------------------|--------------------------------|
---------------------------|--------------------------------|
--7--7-7--7-7---7-7--7--7--|--9--9-9--9-12---12-12--12--10--|
--x--x-x--x-x---x-x--x--x--|--x--x-x--x--x----x--x---x---x--|
--5--5-5--5-5---5-5--5--5--|--7--7-7--7-10---10-10--10---8--|
---------------------------|--------------------------------|


---------------------------|------------------------------------|
---------------------------|------------------------------------|
--9--9-9--9-9---9-9--9--9--|--10--10-10--10-10---12-12--12--12--|
--x--x-x--x-x---x-x--x--x--|---x---x--x---x--x----x--x---x---x--|
--7--7-7--7-7---7-7--7--7--|---8---8--8---8--8---10-10--10--10--|
---------------------------|------------------------------------|


--10-10-10-10-10-10-------------------8-8-8-8-|
----------------------------------------------|
--------------------12-12-12-12-12-12---------|
----------------------------------------------|
----------------------------------------------|
----------------------------------------------|


--8-8-----------------------------------|
----------------------------------------|
------10-10-10-10-10-10-9-9-9-9-9-9-9-9-|
----------------------------------------|
----------------------------------------|
----------------------------------------|


--10-10-10-10-10-10-------------------8-8-8-8-|
----------------------------------------------|
--------------------12-12-12-12-12-12---------|
----------------------------------------------|
----------------------------------------------|
----------------------------------------------|


--8-8-------------------12-12-12-12-12-12-12-12-|
------------------------------------------------|
------10-10-10-10-10-10-------------------------|
------------------------------------------------|
------------------------------------------------|
------------------------------------------------|




Verse Riff:
     PM PM    PM PM                    PM PM    PM PM    PM PM              
---------------------------------|-----------------------------------|
---------------------------------|-----------------------------------|
---------------------------------|-----------------------------------|
---------------------------------|-----------------------------------|
---------------------------------|-----------------------------------|
--0--0--0--0--0--0--0----0----0--|-----0--0--0--0--0--0--0--0--1b----|


     PM PM    PM PM                            PM PM    PM PM               
---------------------------------|-------|---------------------------------|
---------------------------------|-------|---------------------------------|
---------------------------------|-------|---------------------------------|
---------------------------------|-------|---------------------------------|
---------------------------------|-------|---------------------------------|
--0--0--0--0--0--0--0----0----0--|-------|--0--0--0--0--0--0--0----0----0--|


     PM PM    PM PM    PM PM             PM PM    PM PM               
-----------------------------------|---------------------------------|
-----------------------------------|---------------------------------|
-----------------------------------|---------------------------------|
-----------------------------------|---------------------------------|
-----------------------------------|---------------------------------|
-----0--0--0--0--0--0--0--0--1b----|--0--0--0--0--0--0--0----0----0--|


     PM PM       PM PM PM    PM          PM PM    PM PM               
-----------------------------------|---------------------------------|
-----------------------------------|---------------------------------|
-----------------------------------|---------------------------------|
-----------------------------------|---------------------------------|
-----------------------------------|---------------------------------|
-----0--0--0-1---0--0--0--1--0--1--|--0--0--0--0--0--0--0----0----0--|


     PM PM    PM PM    PM PM             PM PM    PM PM               
-----------------------------------|---------------------------------|
-----------------------------------|---------------------------------|
-----------------------------------|---------------------------------|
-----------------------------------|---------------------------------|
-----------------------------------|---------------------------------|
-----0--0--0--0--0--0--0--0--1b----|--0--0--0--0--0--0--0----0----0--|




	Outro:
     PM PM       PM PM PM    PM                                        
-----------------------------------|----------------------------------|
-----------------------------------|----------------------------------|
-----------------------------------|--7-7-7-7-7-7-7-7-7-7-7-7-7-7-7-7-|
-----------------------------------|--x-x-x-x-x-x-x-x-x-x-x-x-x-x-x-x-|
-----------------------------------|--5-5-5-5-5-5-5-5-5-5-5-5-5-5-5-5-|
-----0--0--0-1---0--0--0--1--0--1--|----------------------------------|


----------------------------------|----------------------------------|
----------------------------------|----------------------------------|
--7-7-7-7-7-7-7-7-7-7-7-7-7-7-7-7-|--3-3-3-3-3-3-3-3-3-3-3-3-3-3-3-3-|
--x-x-x-x-x-x-x-x-x-x-x-x-x-x-x-x-|--x-x-x-x-x-x-x-x-x-x-x-x-x-x-x-x-|
--5-5-5-5-5-5-5-5-5-5-5-5-5-5-5-5-|--1-1-1-1-1-1-1-1-1-1-1-1-1-1-1-1-|
----------------------------------|----------------------------------|


----------------------------------|
----------------------------------|
--3-3-3-3-3-3-3-3-3-3-3-3-3-3-3-3-|
--x-x-x-x-x-x-x-x-x-x-x-x-x-x-x-x-|
--1-1-1-1-1-1-1-1-1-1-1-1-1-1-1-1-|
----------------------------------|


--------------------------------------------------|
--------------------------------------------------|
--14-14-14-14-14-14-14-14-14-14-14-14-14-14-14-14-|
---x--x--x--x--x--x--x--x--x--x--x--x--x--x--x--x-|
--12-12-12-12-12-12-12-12-12-12-12-12-12-12-12-12-|
--------------------------------------------------|


--------------------------------------------------|
--------------------------------------------------|
--14-14-14-14-14-14-14-14-14-14-14-14-14-14-14-14-|
---x--x--x--x--x--x--x--x--x--x--x--x--x--x--x--x-|
--12-12-12-12-12-12-12-12-12-12-12-12-12-12-12-12-|
--------------------------------------------------|


--------------------------------------------------|
--------------------------------------------------|
--15-15-15-15-15-15-15-15-15-15-15-15-15-15-15-15-|
---x--x--x--x--x--x--x--x--x--x--x--x--x--x--x--x-|
--13-13-13-13-13-13-13-13-13-13-13-13-13-13-13-13-|
--------------------------------------------------|


--------------------------------------------------||
--------------------------------------------------||
--15-15-15-15-15-15-15-15-15-15-15-15-15-15-15-15-||
---x--x--x--x--x--x--x--x--x--x--x--x--x--x--x--x-||
--13-13-13-13-13-13-13-13-13-13-13-13-13-13-13-13-||
--------------------------------------------------||








GUITAR 2




Intro:
D||-------------------|-------------------|-------------------|
A||-------------------|-------------------|-------------------|
F||-------------------|-------------------|-------------------|
C||-------------------|-------------------|-------------------|
G||--0----------------|-------------------|-------------------|
C||--0----------------|-------------------|-------------------|


-------------------|-------------------|-------------------|-------------------|
-------------------|-------------------|-------------------|-------------------|
-------------------|-------------------|-------------------|-------------------|
-------------------|-------------------|-------------------|-------------------|
-------------------|--0----------------|-------------------|-------------------|
-------------------|--0----------------|-------------------|-------------------|




	Verse:
                         PM PM    PM PM                  
-------------------|---------------------------------|
-------------------|---------------------------------|
-------------------|---------------------------------|
-------------------|---------------------------------|
-------------------|---------------------------------|
-------------------|--0--0--0--0--0--0--0----0----0--|


     PM PM    PM PM    PM PM             PM PM    PM PM               
-----------------------------------|---------------------------------|
-----------------------------------|---------------------------------|
-----------------------------------|---------------------------------|
-----------------------------------|---------------------------------|
-----------------------------------|---------------------------------|
-----0--0--0--0--0--0--0--0--1b----|--0--0--0--0--0--0--0----0----0--|


     PM PM       PM PM PM    PM          PM PM    PM PM               
-----------------------------------|---------------------------------|
-----------------------------------|---------------------------------|
-----------------------------------|---------------------------------|
-----------------------------------|---------------------------------|
-----------------------------------|---------------------------------|
-----0--0--0-1---0--0--0--1--0--1--|--0--0--0--0--0--0--0----0----0--|


     PM PM    PM PM    PM PM             PM PM    PM PM               
-----------------------------------|---------------------------------|
-----------------------------------|---------------------------------|
-----------------------------------|---------------------------------|
-----------------------------------|---------------------------------|
-----------------------------------|---------------------------------|
-----0--0--0--0--0--0--0--0--1b----|--0--0--0--0--0--0--0----0----0--|


     PM PM       PM PM PM    PM          PM PM    PM PM               
-----------------------------------|---------------------------------|
-----------------------------------|---------------------------------|
-----------------------------------|---------------------------------|
-----------------------------------|---------------------------------|
-----------------------------------|---------------------------------|
-----0--0--0-1---0--0--0--1--0--1--|--0--0--0--0--0--0--0----0----0--|


     PM PM    PM PM    PM PM             PM PM    PM PM                  
-----------------------------------|---------------------------------|
-----------------------------------|---------------------------------|
-----------------------------------|---------------------------------|
-----------------------------------|---------------------------------|
-----------------------------------|---------------------------------|
-----0--0--0--0--0--0--0--0--1b----|--0--0--0--0--0--0--0----0----0--|


     PM PM       PM PM PM    PM          PM PM    PM PM               
-----------------------------------|---------------------------------|
-----------------------------------|---------------------------------|
-----------------------------------|---------------------------------|
-----------------------------------|---------------------------------|
-----------------------------------|---------------------------------|
-----0--0--0-1---0--0--0--1--0--1--|--0--0--0--0--0--0--0----0----0--|


     PM PM    PM PM    PM PM             PM PM    PM PM                  
-----------------------------------|---------------------------------|
-----------------------------------|---------------------------------|
-----------------------------------|---------------------------------|
-----------------------------------|---------------------------------|
-----------------------------------|---------------------------------|
-----0--0--0--0--0--0--0--0--1b----|--0--0--0--0--0--0--0----0----0--|




Pre Chorus:
     PM PM       PM PM PM    PM                                             
-----------------------------------|-------------------|-------------------|
-----------------------------------|-------------------|-------------------|
-----------------------------------|-------------------|-------------------|
-----------------------------------|-------------------|-------------------|
-----------------------------------|--0----------------|-------------------|
-----0--0--0-1---0--0--0--1--0--1--|--0----------------|-------------------|




	Chorus:
-------------------|-----------------------------|---------------------------|
-------------------|-----------------------------|---------------------------|
-------------------|-----------------------------|---------------------------|
-------------------|-----------------------------|---------------------------|
--8----------------|-----8--8--8--8s--10--10-----|--0--0-0--0-0---0-0--0--0--|
--8----------------|-----8--8--8--8s--10--10-----|--0--0-0--0-0---0-0--0--0--|


---------------------------|---------------------------|
---------------------------|---------------------------|
---------------------------|---------------------------|
---------------------------|---------------------------|
--0--0-0--0-0---0-0--0--0--|--8--8-8--8-8---8-8--8--8--|
--0--0-0--0-0---0-0--0--0--|--8--8-8--8-8---8-8--8--8--|


---------------------------|---------------------------|
---------------------------|---------------------------|
---------------------------|---------------------------|
---------------------------|---------------------------|
--8--8-8--8-8---8-8--8--8--|--5--5-5--5-5---5-5--5--5--|
--8--8-8--8-8---8-8--8--8--|--5--5-5--5-5---5-5--5--5--|


---------------------------|---------------------------|
---------------------------|---------------------------|
---------------------------|---------------------------|
---------------------------|---------------------------|
--5--5-5--5-5---5-5--5--5--|--7--7-7--7-7---7-7--7--7--|
--5--5-5--5-5---5-5--5--5--|--7--7-7--7-7---7-7--7--7--|


---------------------------|---------------------------|
---------------------------|---------------------------|
---------------------------|---------------------------|
---------------------------|---------------------------|
--8--8-8--8-8---8-8--8--8--|--0--0-0--0-0---0-0--0--0--|
--8--8-8--8-8---8-8--8--8--|--0--0-0--0-0---0-0--0--0--|


---------------------------|------------------------------------|
---------------------------|------------------------------------|
---------------------------|------------------------------------|
---------------------------|------------------------------------|
--0--0-0--0-0---0-0--0--0--|--10--10-10--10-10---10-10--10--10--|
--0--0-0--0-0---0-0--0--0--|--10--10-10--10-10---10-10--10--10--|


------------------------------------|---------------------------|
------------------------------------|---------------------------|
------------------------------------|---------------------------|
------------------------------------|---------------------------|
--10--10-10--10-10---10-10--10--10--|--8--8-8--8-8---8-8--8--8--|
--10--10-10--10-10---10-10--10--10--|--8--8-8--8-8---8-8--8--8--|


---------------------------|---------------------------|
---------------------------|---------------------------|
---------------------------|---------------------------|
---------------------------|---------------------------|
--8--8-8--8-8---8-8--8--8--|--7--7-7--7-7---7-7--7--7--|
--8--8-8--8-8---8-8--8--8--|--7--7-7--7-7---7-7--7--7--|




	Breakdown:
---------------------------|-------------------|-------------------|
---------------------------|-------------------|-------------------|
---------------------------|-------------------|-------------------|
---------------------------|-------------------|-------------------|
--8--8-8--8-8---8-8--8--8--|--0----------------|-------------------|
--8--8-8--8-8---8-8--8--8--|--0----------------|-------------------|

                 
-------------------|-------------------|-------------------|-------------------|
-------------------|-------------------|-------------------|-------------------|
-------------------|-------------------|-------------------|-------------------|
-------------------|-------------------|-------------------|-------------------|
-------------------|-------------------|--0----------------|-------------------|
-------------------|-------------------|--0----------------|-------------------|


  PM PM PM       PM PM             PM PM PM       PM PM        
--------------------------|-----|--------------------------|
--------------------------|-----|--------------------------|
--------------------------|-----|--------------------------|
--------------------------|-----|--------------------------|
--0--0--0--7--7--0--0--0--|-----|--0--0--0--7--7--0--0--0--|
--0--0--0--8--8--0--0--0--|-----|--0--0--0--8--8--0--0--0--|


         PM PM PM          PM PM PM       PM PM                                
------------------------|--------------------------|--------------------------|
------------------------|--------------------------|--------------------------|
------------------------|--------------------------|--------------------------|
------------------------|--------------------------|--------------7-----------|
---------0--0--0--0-----|--0--0--0--7--7--0--0--0--|-----5--------------7--8--|
---------0--0--0--0-----|--0--0--0--8--8--0--0--0--|--------7--8-----8--------|


  PM PM PM       PM PM              PM PM PM          PM PM PM       PM PM     
--------------------------|------------------------|--------------------------|
--------------------------|------------------------|--------------------------|
--------------------------|------------------------|--------------------------|
--------------------------|------------------------|--------------------------|
--0--0--0--7--7--0--0--0--|---------0--0--0--0-----|--0--0--0--7--7--0--0--0--|
--0--0--0--8--8--0--0--0--|---------0--0--0--0-----|--0--0--0--8--8--0--0--0--|


                             PM PM PM       PM PM              PM PM PM        
--------------------------|--------------------------|------------------------|
--------------------------|--------------------------|------------------------|
--------------------------|--------------------------|------------------------|
--------------7-----------|--------------------------|------------------------|
-----5--------------7--8--|--0--0--0--7--7--0--0--0--|---------0--0--0--0-----|
--------7--8-----8--------|--0--0--0--8--8--0--0--0--|---------0--0--0--0-----|


  PM PM PM       PM PM                                
--------------------------|--------------------------|
--------------------------|--------------------------|
--------------------------|--------------------------|
--------------------------|--------------7-----------|
--0--0--0--7--7--0--0--0--|-----5--------------7--8--|
--0--0--0--8--8--0--0--0--|--------7--8-----8--------|


  PM PM PM       PM PM              PM PM PM          PM PM PM       PM PM        
--------------------------|------------------------|--------------------------|
--------------------------|------------------------|--------------------------|
--------------------------|------------------------|--------------------------|
--------------------------|------------------------|--------------------------|
--0--0--0--7--7--0--0--0--|---------0--0--0--0-----|--0--0--0--7--7--0--0--0--|
--0--0--0--8--8--0--0--0--|---------0--0--0--0-----|--0--0--0--8--8--0--0--0--|




	Pre Chorus:
--------------------------|-------------------|-------------------|
--------------------------|-------------------|-------------------|
--------------------------|-------------------|-------------------|
--------------7-----------|-------------------|-------------------|
-----5--------------7--8--|--0----------------|-------------------|
--------7--8-----8--------|--0----------------|-------------------|




	Chorus:
-------------------|-----------------------------|---------------------------|
-------------------|-----------------------------|---------------------------|
-------------------|-----------------------------|---------------------------|
-------------------|-----------------------------|---------------------------|
--8----------------|-----8--8--8--8s--10--10-----|--0--0-0--0-0---0-0--0--0--|
--8----------------|-----8--8--8--8s--10--10-----|--0--0-0--0-0---0-0--0--0--|


---------------------------|---------------------------|
---------------------------|---------------------------|
---------------------------|---------------------------|
---------------------------|---------------------------|
--0--0-0--0-0---0-0--0--0--|--8--8-8--8-8---8-8--8--8--|
--0--0-0--0-0---0-0--0--0--|--8--8-8--8-8---8-8--8--8--|


---------------------------|---------------------------|
---------------------------|---------------------------|
---------------------------|---------------------------|
---------------------------|---------------------------|
--8--8-8--8-8---8-8--8--8--|--5--5-5--5-5---5-5--5--5--|
--8--8-8--8-8---8-8--8--8--|--5--5-5--5-5---5-5--5--5--|


---------------------------|---------------------------|
---------------------------|---------------------------|
---------------------------|---------------------------|
---------------------------|---------------------------|
--5--5-5--5-5---5-5--5--5--|--7--7-7--7-7---7-7--7--7--|
--5--5-5--5-5---5-5--5--5--|--7--7-7--7-7---7-7--7--7--|


---------------------------|---------------------------|
---------------------------|---------------------------|
---------------------------|---------------------------|
---------------------------|---------------------------|
--8--8-8--8-8---8-8--8--8--|--0--0-0--0-0---0-0--0--0--|
--8--8-8--8-8---8-8--8--8--|--0--0-0--0-0---0-0--0--0--|


---------------------------|------------------------------------|
---------------------------|------------------------------------|
---------------------------|------------------------------------|
---------------------------|------------------------------------|
--0--0-0--0-0---0-0--0--0--|--10--10-10--10-10---10-10--10--10--|
--0--0-0--0-0---0-0--0--0--|--10--10-10--10-10---10-10--10--10--|

   
------------------------------------|---------------------------|
------------------------------------|---------------------------|
------------------------------------|---------------------------|
------------------------------------|---------------------------|
--10--10-10--10-10---10-10--10--10--|--8--8-8--8-8---8-8--8--8--|
--10--10-10--10-10---10-10--10--10--|--8--8-8--8-8---8-8--8--8--|


---------------------------|---------------------------|
---------------------------|---------------------------|
---------------------------|---------------------------|
---------------------------|---------------------------|
--8--8-8--8-8---8-8--8--8--|--7--7-7--7-7---7-7--7--7--|
--8--8-8--8-8---8-8--8--8--|--7--7-7--7-7---7-7--7--7--|


---------------------------|-----|-----|-----|-----|
---------------------------|-----|-----|-----|-----|
---------------------------|-----|-----|-----|-----|
---------------------------|-----|-----|-----|-----|
--8--8-8--8-8---8-8--8--8--|-----|-----|-----|-----|
--8--8-8--8-8---8-8--8--8--|-----|-----|-----|-----|




Verse Riff:
     PM PM    PM PM                    PM PM    PM PM    PM PM              
---------------------------------|-----------------------------------|
---------------------------------|-----------------------------------|
---------------------------------|-----------------------------------|
---------------------------------|-----------------------------------|
---------------------------------|-----------------------------------|
--0--0--0--0--0--0--0----0----0--|-----0--0--0--0--0--0--0--0--1b----|


     PM PM    PM PM                    PM PM       PM PM PM    PM     
---------------------------------|-----------------------------------|
---------------------------------|-----------------------------------|
---------------------------------|-----------------------------------|
---------------------------------|-----------------------------------|
---------------------------------|-----------------------------------|
--0--0--0--0--0--0--0----0----0--|-----0--0--0-1---0--0--0--1--0--1--|


     PM PM    PM PM                    PM PM    PM PM    PM PM              
---------------------------------|-----------------------------------|
---------------------------------|-----------------------------------|
---------------------------------|-----------------------------------|
---------------------------------|-----------------------------------|
---------------------------------|-----------------------------------|
--0--0--0--0--0--0--0----0----0--|-----0--0--0--0--0--0--0--0--1b----|


     PM PM    PM PM                    PM PM       PM PM PM    PM     
---------------------------------|-----------------------------------|
---------------------------------|-----------------------------------|
---------------------------------|-----------------------------------|
---------------------------------|-----------------------------------|
---------------------------------|-----------------------------------|
--0--0--0--0--0--0--0----0----0--|-----0--0--0-1---0--0--0--1--0--1--|


     PM PM    PM PM                    PM PM    PM PM    PM PM        
---------------------------------|-----------------------------------|
---------------------------------|-----------------------------------|
---------------------------------|-----------------------------------|
---------------------------------|-----------------------------------|
---------------------------------|-----------------------------------|
--0--0--0--0--0--0--0----0----0--|-----0--0--0--0--0--0--0--0--1b----|


     PM PM    PM PM                    PM PM       PM PM PM    PM     
---------------------------------|-----------------------------------|
---------------------------------|-----------------------------------|
---------------------------------|-----------------------------------|
---------------------------------|-----------------------------------|
---------------------------------|-----------------------------------|
--0--0--0--0--0--0--0----0----0--|-----0--0--0-1---0--0--0--1--0--1--|


     PM PM    PM PM                    PM PM    PM PM    PM PM              
---------------------------------|-----------------------------------|
---------------------------------|-----------------------------------|
---------------------------------|-----------------------------------|
---------------------------------|-----------------------------------|
---------------------------------|-----------------------------------|
--0--0--0--0--0--0--0----0----0--|-----0--0--0--0--0--0--0--0--1b----|


     PM PM    PM PM                    PM PM       PM PM PM    PM                      
---------------------------------|-----------------------------------||
---------------------------------|-----------------------------------||
---------------------------------|-----------------------------------||
---------------------------------|-----------------------------------||
---------------------------------|-----------------------------------||
--0--0--0--0--0--0--0----0----0--|-----0--0--0-1---0--0--0--1--0--1--||




Tablature Legend
----------------
L - tied note
S - Slide
PM – Palm Mute
x - dead note
g - grace note
(n) - ghost note
> - accentuded note
NH - natural harmonic
PH - pitch harmonic
h - hammer on
p - pull off
b - bend
Добавлено: 03.04.2012
Другие материалы по этой песне:

Страница создана 22.02.2012
http://primanota.ru/no-bragging-rights/and-they-threatened-us-with-fire-chords.htm
Привет, Гость.
Предлагаем пройти революционный курс по гитаре.
Подарок от PrimaNota.Ru, забирай!