PrimaNota.ru - самый крупный в мире бесплатный архив песенных текстов, аккордов, табулатур и нот


No Angles - Still In Love With You - таба, видео

Регистрация Запомнить меня
Войти через:  Facebook Google Twitter Vk Yandex Mail.ru

No Angles - Still In Love With You - таба, видео

Печатать
Просмотров: 112
Artist: No Angles
Title: Still in love with you
Album: Now..US!

Transcribed By: Marcel Bauer
Contact Email: Marcel.Bauer85@web.de

Tuning: Standard, no capo

This song is my first Tab and I hope that it is alright!
The Song is not very good like the group who made it, but it has a 
nice guitar part and was easy to Tab :-).


Intro/Basic Verse Riff:
e |--3--10--10--10--10--10--10--10|----8----7----5----3|
b |--5--12--12--12--12--12--12--12|----10---9----7----5|
g |--4--11--11--11--11--11--11--11|----9----8----6----4|
d |-------------------------------|--------------------|
a |-------------------------------|--------------------|
E |-------------------------------|--------------------|


e |--------8----5----|--(repeat all)-|-----------------|
b |--------10---7----|---------------|--8--7--5-----5--|
g |--------9----6----|---------------|-----------8-----|
d |------------------|---------------|-----------------|
a |------------------|---------------|-----------------|
E |------------------|---------------|-----------------|

This repeats in the complete song.

          

Brige:

e |------------2----|
b |-----3-----------|
g |--2-----2--------|   (repeat it 3X)
d |-----------------|
a |-----------------|
E |-----------------|


I think that was it, have Fun!

P.S.:Please excuse my terrible english!

     
Добавлено: 03.06.2013
Другие материалы по этой песне:
  • Аккорды и текст

Страница создана 03.06.2013
http://primanota.ru/no-angles/still-in-love-with-you-chords.htm
Привет, Гость.
Предлагаем пройти революционный курс по гитаре.
Подарок от PrimaNota.Ru, забирай!