PrimaNota.ru - самый крупный в мире бесплатный архив песенных текстов, аккордов, табулатур и нот


nk - Television - бас-таба, видео

Регистрация Запомнить меня
Войти через:  Facebook Google Twitter Vk Yandex Mail.ru

nk - Television - бас-таба, видео

Печатать
Просмотров: 66
-------------------------------------------------------------------------------
                             TELEVISION - NK
-------------------------------------------------------------------------------
Tabbed by: Bassplayer27
E-mail: 

Formerly known as "North Korea", the band changed names to "NK" with Triple
Crown Records.

The Intro until 0:21 sounds like a guitar with some funky effects. I added the
piece so you could play along during the intro if you'd like. ENJOY!

Tuning: Standard E
Intro:
G|---7/9-7-------------------------------------------------------------------|
D|--------9-7-5---7---7/9--------5-------------------------------------------|
A|-7------------7---7----------77--------------------------------------------|
E|---------------------------------------------------------------------------|

G|-7/9-7---------------------------------------------------------------------|
D|-------9-7-5---7---7/9------5-x-5\-----------------------------------------|
A|-------------7---7---------------------------------------------------------|
E|---------------------------------------------------------------------------|

G|-7/9-7---------------------------------------------------------------------|
D|-------9-7-5---5---/9----------75------------------------------------------|
A|-------------7---7---------7-7---------------------------------------------|
E|---------------------------------------------------------------------------|

G|-7/9-7---------------------------------------------------------------------|
D|-------9-7-5---7---7/9---------5~------------------------------------------|
A|-------------7---7---------7-7---------------------------------------------|
E|---------------------------------------------------------------------------|

0:21

G|---------------------------------------------------------------------------|
D|---------------------------------------------------------------------------|
A|---------------------------------------------------------------------------|
E|-0~---3--5---------0~-0--30--5~-------0~---3--5----------0~----------------|

0:31

G|---------------------------------------------------------------------------|
D|---------------------------------------------------------------------------|
A|-7~------------------------------------------------------------------------|
E|-----3--5-------0~-0--30--5~----------0~---3--5---------0~-----------------|

0:42

G|-------------------9-------------------------------------------------------|
D|-7~---5~-----7~-----7-5~---------------------------------------------------|
A|---------------------------------------------------------------------------|
E|---------------------------------------------------------------------------|

0:53

G|---7/9-7-------------------------------------------------------------------|
D|--------9-7-5---7---7/9--------5-------------------------------------------|
A|-7------------7---7----------77--------------------------------------------|
E|---------------------------------------------------------------------------|

G|-7/9-7---------------------------------------------------------------------|
D|-------9-7-5---7---7/9------5-x-5\-----------------------------------------|
A|-------------7---7---------------------------------------------------------|
E|---------------------------------------------------------------------------|

G|-7/9-7---------------------------------------------------------------------|
D|-------9-7-5---5---/9--------5--5------------------------------------------|
A|-------------7---7---------7-----------------------------------------------|
E|---------------------------------------------------------------------------|

G|-7/9-7---------------------------------------------------------------------|
D|-------9-7-5---7---7/9-------5---------------------------------------------|
A|-------------7---7---------7---7-------------------------------------------|
E|---------------------------------------------------------------------------|

G|---------------------------------------------------------------------------|
D|---------------------------------------------------------------------------|
A|---------------------------------------------------------------------------|
E|-0~---3--5---------0~-0--30--5~-------0~---3--5----------0~----------------|


G|--------------------------------------------------------------------------|
D|---------7---------------7------------------------------------------------|
A|-7~--/10--------7~-7-/10--------------------------------------------------|
E|--------------------------------------------------------------------------|

1:35

G|-------------------9-------------------------------------------------------|
D|-7~---5~-----7~-----7-5~--------5/7-7-5~-----------------------------------|
A|-----------------------------------------------8~--------------------------|
E|---------------------------------------------------------------------------|

1:57

G|---------------------------------------------------------------------------|
D|---------------------------------------------------2--4~-------------------|
A|------0--2~-----------0---2~--------0--2--------2h4--4---------------------|
E|-2~-2------------2~-2---2-------2~-----------2-----------------------------|

G|---------------------------------------------------------------------------|
D|---------------------------------------------------------------------------|
A|-----0--2~---------0--2-----------0--2-------------------------------------|
E|-2~------------2--2--2----------2----------2~------------------------------|

G|---------------------------------------------------------------------------|
D|---------------------------------------------------------------------------|
A|----0--2~---------0--2---------0--2----------------------------------------|
E|-2~-----------2--2--2--------2-------------2~------------------------------|

2:28 No Bass  (Drums + Guitar)

2:39  Repeat till the end
G|---------------------------------------------------------------------------|
D|---------------------------------------------------------------------------|
A|-----0--2--------0--2---------0--2-----------------------------------------|
E|-2~----------2~-2----------2~---------2~-----------------------------------|







| /  slide up
| \  slide down
| h  hammer-on
| p  pull-off
| ~  vibrato
| +  harmonic
| x  Mute note
===============================================================================
Добавлено: 24.06.2016
Вам также может быть интересно:
Другие материалы по этой песне:
  • Аккорды и текст

Страница создана 24.06.2016
http://primanota.ru/nk/television-chords.htm
Привет, Гость.
Предлагаем пройти революционный курс по гитаре.
Подарок от PrimaNota.Ru, забирай!