PrimaNota.ru - самый крупный в мире бесплатный архив песенных текстов, аккордов, табулатур и нот


nk - Set A Fire - бас-таба, видео

Регистрация Запомнить меня
Войти через:  Facebook Google Twitter Vk Yandex Mail.ru

nk - Set A Fire - бас-таба, видео

Печатать
Просмотров: 114
Уроки эстрадного вокала в Санкт-Петербурге
-------------------------------------------------------------------------------
                             SET A FIRE - Nk
-------------------------------------------------------------------------------
Tabbed by: Bassplayer27
E-mail:

I believe this is played in Half Step Down tuning but I like to keep most of my 
tabs to (E) standard tuning. Also I threw in that open E to give a little more 
flare but I do not believe it is played in the actual song. Check out NK's Live 
Garage Tape version of "Set A Fire" on Youtube.

Tuning: E

0:10
G|---------------------------------------------------------------------------|
D|---------------------------------------------------------------------------|
A|-----2-----------2-----------2------------2------22222---22222-------------|
E|-2h4---4-----2h4---4-----2h4---4------2h4---4----------4-------------------|

G|---------------------------------------------------------------------------|
D|---------------------------------------------------------------------------|
A|-------2----------2----------2----------2-------22222---22222--------------|
E|-0h2h4---4----2h4---4----2h4---4----2h4---4-----------4--------------------|

Pause for guitar and drums

0:35
G|---------------------------------------------------------------------------|
D|---------------------------------------------------------------------------|
A|-----2-----------2-----------2------------2------22222---22222-------------|
E|-2h4---4-----2h4---4-----2h4---4------2h4---4----------4-------------------|

G|---------------------------------------------------------------------------|
D|---------------------------------------------------------------------------|
A|-------2----------2----------2----------2-----2--------22222---22222-------|
E|-0h2h4---4----2h4---4----2h4---4----2h4---4-----4------------4-------------|

Chorus  2x
0:55

G|---------------------------------------------------------------------------|
D|----------------------------------------1111111111111111-------------------|
A|--------------222222222222-111111111111------------------------------------|
E|-444444444444--------------------------------------------------------------|

Pause 

1:20
G|---------------------------------------------------------------------------|
D|---------------------------------------------------------------------------|
A|-------2-------------2-------------2-------------2------22222---22222------|
E|-0h2h4---4~----0h2h4---4~----0h2h4---4~----0h2h4---4~---------4------------|

G|---------------------------------------------------------------------------|
D|---------------------------------------------------------------------------|
A|-------2-------------2-------------2-------------2-------------------------|
E|-0h2h4---4~----0h2h4---4~----0h2h4---4~----0h2h4---4~----------------------|

Chorus
1:40
G|---------------------------------------------------------------------------|
D|----------------------------------------1111111111111111-------------------|
A|--------------222222222222-111111111111------------------------------------|
E|-444444444444--------------------------------------------------------------|

G|---------------------------------------------------------------------------|
D|----------------------------------------11111111111111111111111111111111111|
A|--------------222222222222-111111111111------------------------------------|
E|-444444444444--------------------------------------------------------------|

2:08
G|---------------------------------------------------------------------------|
D|---------------------------------------------------------------------------|
A|---------------------------------------------------------------------------|
E|-7/-------------------7/---------------------------------------------------|

2:14
G|---------------------------------------------------------------------------|
D|------------------4444444444444444-6666666666666666------------------------|
A|-6666666666666666-----------------------------------22222222-11111111------|
E|---------------------------------------------------------------------------|

G|---------------------------------------------------------------------------|
D|------------------4444444444444444-6666666666666666------------------------|
A|-6666666666666666-----------------------------------22222222-11111111------|
E|---------------------------------------------------------------------------|

Pause

2:50
G|---------------------------------------------------------------------------|
D|----------------------------------------1111111111111111-------------------|
A|--------------222222222222-111111111111------------------------------------|
E|-444444444444--------------------------------------------------------------|

G|---------------------------------------------------------------------------|
D|----------------------------------------11111111111111111111111111111111111|
A|--------------222222222222-111111111111------------------------------------|
E|-444444444444--------------------------------------------------------------|

Pause

Ending
3:19
G|---------------------------------------------------------------------------|
D|---------------------------------------------------------------------------|
A|-22222---------------------------------------------------------------------|
E|---------------------------------------------------------------------------|




| /  slide up
| \  slide down
| h  hammer-on
| p  pull-off
| ~  vibrato
| +  harmonic
| x  Mute note
===============================================================================
Добавлено: 24.06.2016
Вам также может быть интересно:
Другие материалы по этой песне:
  • Аккорды и текст

Страница создана 24.06.2016
http://primanota.ru/nk/set-a-fire-chords.htm
Привет, Гость.
Предлагаем пройти революционный курс по гитаре.
Подарок от PrimaNota.Ru, забирай!