PrimaNota.ru - самый крупный в мире бесплатный архив песенных текстов, аккордов, табулатур и нот


Njord - Ragnarok - таба, видео

Регистрация Запомнить меня
Войти через:  Facebook Google Twitter Vk Yandex Mail.ru

Njord - Ragnarok - таба, видео

Печатать
Просмотров: 83
Уроки эстрадного вокала в Санкт-Петербурге
Njord - Ragnarök
----------------
http://www.officialnjord.se/english/?lang=en-us
----------------

By: skyturnedred@gmail.com

Tuning: Standard EADGBe

. = Palm-mute



INTRO:

|-----------------------------------------------------|
|-----------------------------------------------------|
|--------------5-4-2-2-2-2--2-4-5-5-5-5---------------|
|-5-4-2-2-2-2--5-4-2-2-2-2--2-4-5-5-5-5--5-4-2-2-2-2--| x2
|-5-4-2-2-2-2--3-2-0-0-0-0--0-2-3-3-3-3--5-4-2-2-2-2--|
|-3-2-0-0-0-0----------------------------3-2-0-0-0-0--|


PRE-VERSE:

|--------------------------------------|
|--------------------------------------|
|-------------2-----22-5-----55--------|
|-54-2-----22-2-222222-5-555555-2------|
|-54-2-222222-0-000000-3-333333-2-2222-|
|-32-0-000000-------------------0-0000-|
       ....     ....     ....     ....

|--------------------------------------|
|--------------------------------------|
|-------------2-----22-5-----55--------|
|-22-2-----22-2-222222-5-555555-2------|
|-22-2-222222-0-000000-3-333333-2-2222-|
|-00-0-000000-------------------0-0000-|
       ....     ....     ....     ....


VERSE:

|--------------------------------------|
|--------------------------------------|
|-------------2-----22-5-----55--------|
|-22-2-----22-2-222222-5-555555-2------| x2
|-22-2-222222-0-000000-3-333333-2-2222-|
|-00-0-000000-------------------0-0000-|
       ....     ....     ....     ....

CHORUS:

|-----------------------------------|
|-----------------------------------|
|-5--5-5-55-7--7-7-77---------------|
|-5--5-5-55-7--7-7-77--5--4--2--2-2-|
|-3--3-3-33-5--5-5-55--5--4--2--2-2-|
|----------------------3--2--0--0-0-|

|-----------------------------------|
|-----------------------------------|
|-5--5-5-55-7--7-7-77-444444444-----|
|-5--5-5-55-7--7-7-77-444444444-----|
|-3--3-3-33-5--5-5-55-222222222-----|
|-----------------------------------|


RIFF:

|---------------------------------------|
|---------------------------------------|
|------4444------------5----4-----------|
|-2222-4444-22222222-555--444-22222222--| x2
|-2222-2222-22222222-333--222-22222222--|
|-0000------00000000----------00000000--|
                     ..   ..

Repeat VERSE
Repeat CHORUS
Repeat RIFF (end in E5 power chord)


BRIDGE:

|----------------------------------------------------------|
|----------------------------------------------------------|
|----------------------------------------------------------|
|----------------------------------------------------------|
|-------------------0---2-3-0---0-3--3-3--2----------------|
|-0---2-3-0---2--3---------------------------3--0---2-3-0--|

|----------------------------------------------------|
|----------------------------------------------------|
|----------------------------------------------------|
|----------------------------------------------------|
|-------------------0---2-3-0---0-3--3/5--5/7-7------|
|-0---2-3-0---2--3-----------------------------------|

(bass only)
|------------------------------------------|
|------------------------------------------|
|-----------0---0-0----3---3-3-------------|
|-0---0-0------------------------0---0-0---|

(Guitar again)
|---------------------------------------------------|
|---------------------------------------------------|
|---------------------------------------------------|
|---------------------------------------------------|
|-------------------0---2-3-0---0-3--3-3--2---------|
|-0---2-3-0---2--3---------------------------3--0---|


(roughly something like this)
|------------------------------------------------------------|
|------------------------------------------------------------|
|------------------------------------------------------------|
|-2-------------2-------------2------2----2----2--2--2--222--|
|-2-------------2-------------2------2----2----2--2--2--222--|
|-0-0000000000000-0000000000000-000000000000000000000000000--|
    ............  ............  ..... .... .... .. .. ..


Repeat CHORUS
Repeat RIFF
Repeat RIFF (without palm mute)


OUTRO:

|---------------------------------------------|
|---------------------------------------------|
|---------------------------------------------|
|---------------------2!----------------------|
|-3---2---0-----------2!----------------------|
|-------------3---0---0!----------------------|
Добавлено: 19.08.2013
Другие материалы по этой песне:
  • Аккорды и текст

Страница создана 19.08.2013
http://primanota.ru/njord/ragnarok-chords.htm
Привет, Гость.
Предлагаем пройти революционный курс по гитаре.
Подарок от PrimaNota.Ru, забирай!