PrimaNota.ru - самый крупный в мире бесплатный архив песенных текстов, аккордов, табулатур и нот


Njord - Fornstora Dagar - таба, видео

Регистрация Запомнить меня
Войти через:  Facebook Google Twitter Vk Yandex Mail.ru

Njord - Fornstora Dagar - таба, видео

Печатать
Просмотров: 82
Njord - Fornstora Dagar
-----------------------------------------------
http://www.officialnjord.se/english/?lang=en-us
-----------------------------------------------
By: skyturnedred@gmail.com

Tuning: Standard EADGBe

. = Palm-mute



INTRO:


|------------------------------------|
|------------------------------------|
|------------------------------------|
|-4/5-5-5--4/5-5-5--4/5/4/5/4/5-5-5--|
|-4/5-5-5--4/5-5-5--4/5/4/5/4/5-5-5--|
|-2/3-3-3--2/3-3-3--2/3/2/3/2/3-3-3--|


|-----------------------------------------------------------------|
|-----------------------------------------------------------------|
|-----------------------------------------------------------------|
|-5----------------5---------------5------5------5----5----5----5-|
|-5----------------5---------------5------5------5----5----5----5-|
|-3-33333333333333-3-3333333333333-3-3333-3-3333-3-33-3-33-3-33-3-|
    ..............   .............   ....   ....   ..   ..   ..


RIFF:

Gtr1
|------------------------------------------------------|
|------------------------------------------------------|
|------------4-2---------2--5-5-55-55-4-2-22-2-4-2-4---|
|---5-5-55-5-----5-4-4-5-----------------------------5-|
|-5----------------------------------------------------|
|------------------------------------------------------|


|-----------------------------------------------------|
|-----------------------------------------------------|
|------------4-2---------2--5-5-55-55-4-2-------------|
|---5-5-55-5-----5-4-4-5------------------5-----------|
|-5---------------------------------------------------|
|-----------------------------------------------------|

Gtr2
|-----------------------------------------------------------------|
|-----------------------------------------------------------------|
|-----------------7-7-7-7-7-7-7-7-5-5-5-5-7-7-7-7-----------------|
|-5-5-5-5-5-5-5-5-7-7-7-7-7-7-7-7-5-5-5-5-7-7-7-7-5-5-5-5-5-5-5-5-| x2
|-5-5-5-5-5-5-5-5-5-5-5-5-5-5-5-5-3-3-3-3-5-5-5-5-5-5-5-5-5-5-5-5-|
|-3-3-3-3-3-3-3-3---------------------------------3-3-3-3-3-3-3-3-|


VERSE:

|--------------------------------------------------|
|--------------------------------------------------|
|-------------7----------5------7------------------|
|-5-----------7----------5------7------5-----5-5---|
|-5-----------5-55555555-3-3333-5-5555-5-----5-5---|
|-3-333333333--------------------------3-33333333--|
    .........   ........   ....   ....   .... . .

|--------------------------------------------------|
|--------------------------------------------------|
|-------------7----------5------7------------------|
|-5-----------7----------5------7------5-5-5-5-5---|
|-5-----------5-55555555-3-3333-5-5555-5-5-5-5-5---|
|-3-333333333--------------------------3-3-3-3-3---|
    .........   ........   ....   ....   



CHORUS:

|-----------------------------------------------------------------|
|-----------------------------------------------------------------|
|-----------------7-7-7-7-7-7-7-7-5-5-5-5-7-7-7-7-----------------|
|-5-5-5-5-5-5-5-5-7-7-7-7-7-7-7-7-5-5-5-5-7-7-7-7-5-5-5-5-5-5-5-5-|
|-5-5-5-5-5-5-5-5-5-5-5-5-5-5-5-5-3-3-3-3-5-5-5-5-5-5-5-5-5-5-5-5-|
|-3-3-3-3-3-3-3-3---------------------------------3-3-3-3-3-3-3-3-|

|-----------------------------------------------------------------|
|-----------------------------------------------------------------|
|-----------------4-4-4-4-4-4-4-4-5-5-5-5-7-7-7-7-----------------|
|-5-5-5-5-5-5-5-5-4-4-4-4-4-4-4-4-5-5-5-5-7-7-7-7-5-5-5-5-5-5-5-5-|
|-5-5-5-5-5-5-5-5-2-2-2-2-2-2-2-2-3-3-3-3-5-5-5-5-5-5-5-5-5-5-5-5-|
|-3-3-3-3-3-3-3-3---------------------------------3-3-3-3-3-3-3-3-|


Repeat RIFF
Repeat VERSE
Repeat CHORUS
Repeat RIFF
Repeat VERSE
Repeat CHORUS x2

---
That's it.
Добавлено: 06.06.2013
Другие материалы по этой песне:
  • Аккорды и текст

Страница создана 06.06.2013
http://primanota.ru/njord/fornstora-dagar-chords.htm
Привет, Гость.
Предлагаем пройти революционный курс по гитаре.
Подарок от PrimaNota.Ru, забирай!