PrimaNota.ru - самый крупный в мире бесплатный архив песенных текстов, аккордов, табулатур и нот


Nirvana - Talk To Me - аккорды и текст, таба, бас-таба, видео

Регистрация Запомнить меня
Войти через:  Facebook Google Twitter Vk Yandex Mail.ru

Nirvana - Talk To Me - аккорды и текст, таба, бас-таба, видео

Печатать
Просмотров: 620
Talk To Me
Nirvana
		   Talk To Me
by:Kurt Cobain
Transcribed by:Steve22067@aol.com
/=slide up
\=slide down
INTRO
intro-part 1
distortion off
||----||
||----||
||-----4-4/5-5-----------3333-||
||-5-5-4-4/5-5-5-5\3--3-3333-||
||-5-5-2-2/3-3-5-5\3--3-1111-||
||-3-3----------3-3\1--1-||

intro-part 2
distortion on
||----||
||----||
||-----4-4/5-5-----------3333-||
||-5-5-4-4/5-5-5-5\3--3-3333-||
||-5-5-2-2/3-3-5-5\3--3-1111-||
||-3-3----------3-3\1--1-||

VERSE
distortion off
||----||
||----||
||-----4-4/5-5-----------3333-||
||-5-5-4-4/5-5-5-5\3--3-3333-||
||-5-5-2-2/3-3-5-5\3--3-1111-||
||-3-3----------3-3\1--1-||

PRE-CHORUS(distortion on and a little reverb)
pre-chorus-part 1
||---||
||---||
||-3-(28 x's)-4444/555-||
||---||
||---||
||---||

pre-chorus-part 2
||---||
||---||
||-3-(28 x's)-5555/666-||
||---||
||---||
||---||


CHORUS
||----||
||----||
||--------5555x-||
||-5555x-5555x-33333333-||
||-5555x-3333x-33333333-||
||-3333x--------11111111-||

SOLO-I don't have a clue.

OVERALL
intro-part 1>once
intro-part 2>3 x's
verse>4 x's
pre-chorus-part 1>once
pre-chorus-part 2>once
chorus>4 x's
verse>4 x's
pre-chorus-part 1>once
pre-chorus-part 2>once
chorus>4 x's
solo>once
verse>4 x's
pre-chorus-part 1>once
pre-chorus-part 2>once
chorus>8 x's

Send comments, suggestions, and corrections to Steve22067@aol.com

This song can be found on the imports:
"Outcesticide:In Memory of Kurt Cobain"
"NIRVANA:Europe 1991"







Talk To Me
By Kurt Cobain - Performed By Nirvana
Tab By Leo Cailleteau - dadson@neosoft.com
The Song Was Only Played Twice Based Upon Bootlegs Of Shows, 11/23/1991 In A
Rare Tracks Show Which Also Included Curmudgeon And Oh, The Guilt.  The More
Famous Recording Of It Comes From 11/20/1991 From A Show In Barciella, Spain
From The CD Europe 1991 In An Audience Recording.  I Used Both Version To
Come Up With The Tab.   I Used The Lyrics From The 11/20/1991 Version
Because The Quality Is Better. I Am Desperately Searching For A Good Quality
Copy Of The 11/23/1991 Show.  I Would Appreciate Any Help, Including Just A
Partial Copy Of The Show.

Talk To Me
Verse/Chorus  G5 B5 C5 F5 Bb5 (The B5 Is Just A Slide By Chord)
Pre-Chorus
---------------------------------------------------
---------------------------------------------------
--3-3-3-3-3-3-4-4-4-4-4-4-5-5-5-5-5-5-6-6-6-6-6-6--
---------------------------------------------------
---------------------------------------------------
---------------------------------------------------

---------------------------------------------------
---------------------------------------------------
--3-3-3-3-3-3-4-4-4-4-4-4-5-5-5-5-5-5-6-6-6-6-6-6--
---------------------------------------------------
---------------------------------------------------
---------------------------------------------------

Talk To Me
Shake it down easy, shake it down sleazy, come on
Shake it down easy, shake yourself, Suzy, come on

Don't let me detain you
Try to ride along
Don't you lie, knowing
I am not sad
I am not silly
I am not chippin'
I am not chippin' away

Talk to me
In your own language, please
In your own
Talk to me
In your own language please

Shake it down easy, make it sound seamy, doll man
Make it sound now, make it full house, sad man

Leader of the band
Makes a mental hell
I won't weather it well
Well I never
Saw it with my arm
Paint it with my heart
Paint it with my eyes and make it right

Lay down easy, lay it down seamy, sad man
Lay down easy, lay it down seamy, sad man

You don't want to hear this
Nothin' but a whore
I will play the leader
With pain
Now you know I'm needy
Lay them down easy
Lay them down easy

Talk to me
In your own language please

The Power Chord Chart
I Created The Chart For All Of The People Who Are Just Learning To Play The
Guitar And Need Help With Chords From The Songs From Their Favorite Bands.
F5     Bb5     F#5     B5     G5     C5     G#5     C#5     A5     D5
---------------------------------------------------------------------
---------------------------------------------------------------------
---------------------------------------------------------------------
--------3--------------4-------------5---------------6-------------7-
-3------1-------4------2------5------3-------6-------4------7------5-
-1--------------2-------------3--------------4--------------5--------

Bb5     Eb5     B5     E5     C5     F5     C#5     F#5     D5     G5
---------------------------------------------------------------------
---------------------------------------------------------------------
---------------------------------------------------------------------
---------8-------------9-------------10-------------11-----------12--
-8-------6------9------7------10------8------11------9----12-----10--
-6--------------7--------------8--------------9-----------10---------

E
--
--
-1
-2
-2
--

Best

Leo
dadson@neosoft.com     
Добавлено: 30.06.2013
Другие материалы по этой песне:

Страница создана 10.03.2012
http://primanota.ru/nirvana/talk-to-me-chords.htm
Привет, Гость.
Предлагаем пройти революционный курс по гитаре.
Подарок от PrimaNota.Ru, забирай!