PrimaNota.ru - самый крупный в мире бесплатный архив песенных текстов, аккордов, табулатур и нот


Nirvana - Smels like teen spirit - аккорды и текст, видео

Регистрация Запомнить меня
Войти через:  Facebook Google Twitter Vk Yandex Mail.ru

Nirvana - Smels like teen spirit - аккорды и текст, видео

Печатать
Просмотров: 285
Smels like teen spirit
Nirvana
Verse Intro:
E  A  G  C (x2)

Verse:

E    A     G
Load up on guns
C          E
Bring your friends
     A      G
It's fun to lose
    C     E
And to pretend
      A      G
She's overboard
C         E
Myself assured
  A      G      C     E
I know I know a dirty word
E      A      G      C
Hello, hello, hello, how low (x4)


Chorus:

E
With the lights out
A         G
It's less dangerous
C        E
Here we are now
A       G
Entertain us
C      E
I feel stupid
A       G
And contagious
C        E
Here we are now
A       G
Entertain us
C    E
A milato
A     G
An albino
C     E
A misquito
A     G
My libido
C
Yeah


Post-Chorus (this is where I get a little off, and may need work)

e -----------------------------------------|
B -----------------------2-2-0-0-----------|
G --1-1-1-2-2--2^--1-1-1-2-2-0-0-1---------|
D --2-2-2-3-3------2-2-2-2-2-0-0-2---------|
A --2-2-2-3-3------2-2-2---------2---------|
E -----------------------------------------| (x2)
              Hey!

Solo: (tabbed as if you still have the capo on)

e -------------------------------------|
B -------------------------------------|
G ---7-9---7-9-7-5-4-5-4---------------|
D -9-----5---------------7-5-7-9-7-5-4-|
A -------------------------------------|
E -------------------------------------| (x2)

e ----------------------|
B ----------------------|
G ----------------------|
D -5-4--5-4--5-4--5-4---|
A --------------------7-|
E ----------------------| (x4)
Добавлено: 29.09.2015
Другие материалы по этой песне:
  • Аккорды и текст

Страница создана 29.09.2015
http://primanota.ru/nirvana/smels-like-teen-spirit-chords.htm
Привет, Гость.
Предлагаем пройти революционный курс по гитаре.
Подарок от PrimaNota.Ru, забирай!