PrimaNota.ru - самый крупный в мире бесплатный архив песенных текстов, аккордов, табулатур и нот


Nirvana - Live In Rome Album - бас-таба, видео

Регистрация Запомнить меня
Войти через:  Facebook Google Twitter Vk Yandex Mail.ru

Nirvana - Live In Rome Album - бас-таба, видео

Печатать
Просмотров: 185
All songs from live in Rome

-I know this is bootlegged but dont worry i didn't bootleg it im only 13.
a friend of a firend of a friend of a friend of a friend of a friend of a
friend ... (u get the idea)

-Some of these songs i couldn't find myself (or i found them but the
others are better) so i BORROWED some from other tabs on MX. I hope they
don't mind. I put there name(or e-mail)at the end of the song. This is
the best bootleg there is, no one tabbed it so i did it myself. If there
isn't anybody's name or e-mail it means i did it.

-Too bad that they didn't make a cd out of it i think its better than
"the muddy banks of the wiskah"

-U probably dont have this cd

INDEX
1.Heart Shaped Box    Metallica301@aol.com
2.Radio Friendly Shifter...Lebassiste(me)
3.Drain You     Dave Miller ~ dwm3@po.cwru.edu
4.Breed        Lebassiste(me)
5.Serve the servents    -Retard With a Flashlight
6.Come as you are    Lebassiste(me)
7.Smells like teen spirit Lebassiste(me)
8.Sliver        Lebassiste(me)
9.Dumb        OffspringBass311
10.In Bloom     Lebassiste(me)
11.About A Girl    hullabaloonication
12.Lithuim     Lebassiste(me)
13.Pennyroyal tea    OffspringBass311
14.School     Lebassiste(me)
15.Polly        Lebassiste(me)
16.Very Ape     Christian Brosche
17.Lounge Act        TABBED BYBEND Awacka
18.Rape Me     Lebassiste(me)
19.Territorial Pissings Yngrz
20.All Apologies    Tapeworm031
21.On a plain     Tabbed by Robert Hull
22.Scentless Aprentice Lebassiste(me)


#1.Heart Shaped Box

Verse (she eyes me likeâ^À¦) repeat 8 times
|-------------------------------------|
|-------------------------------------|
|-0-0-0-0-----------------------------|
|---------3-3-3-3-0-0-0-0-0-0-0-0-----|

Chorus (Heyâ^À¦Wait) repeat 6 times
|-----------------------------------|
|-----4~----------------------------|
|-0-0-------3~-----3~-----4---------|
|-------3-3----0-0----0-5--3--------|

Bridge (your adviceâ^À¦) repeat 2 times
|------------------------------------|
|------------------------------------|
|------------------------------------|
|-3-3-3-3-3-3-3-3-0-0-0-0-0-0-0-0----|

Verse (meat-eating orchardsâ^À¦) repeat 8 times
|-------------------------------------|
|-------------------------------------|
|-0-0-0-0-----------------------------|
|---------3-3-3-3-0-0-0-0-0-0-0-0-----|




Chorus (Heyâ^À¦Wait) repeat 6 times
|-----------------------------------|
|-----4~----------------------------|
|-0-0-------3~-----3~-----4---------|
|-------3-3----0-0----0-5--3--------|

Bridge (your adviceâ^À¦) repeat 2 times
|-----------------------------------|
|-----------------------------------|
|-----------------------------------|
|-3-3-3-3-3-3-3-3-0-0-0-0-0-0-0-0---|

Guitar solo : C chorus repeat 2 times

|--------------------------------------|
|-----4~-------------------------------|
|-0-0-------3~-----3~-----4------------|
|-------3-3----0-0----0-5--3-----------|

Verse (when guitar holds last note on solo) repeat 10 times
|------------------------------------|
|------------------------------------|
|-0-0-0-0----------------------------|
|--------3-3-3-3-0-0-0-0-0-0-0-0-----|

Chorus (Heyâ^À¦Wait) repeat 6 times
|-----------------------------------|
|-----4~----------------------------|
|-0-0-------3~-----3~-----4---------|
|-------3-3----0-0----0-5--3--------|

Bridge (your adviceâ^À¦) repeat 4 times (on 4th time let 0 ring)
|-----------------------------------|
|-----------------------------------|
|-----------------------------------|
|-3-3-3-3-3-3-3-3-0-0-0-0-0-0-0-0---| Key: ~ bend string on that fret

THANX TO Metallica301@aol.com
(i found one myself but this one is better. This is the bbest
interpretation for this song that i found.)


#2.Radio Friendly Unit Shifter

Verse:
G|--------------------------------------|
D|--------------------------------------|
A|-----2------1-1-1---------------------|
E|--44---2-2-2------1-1-1---------------| repeat


Chorus (this is when kurt says hate your anemies...save your friends...)
G|-----------------------------------------------------------|
D|-----------------------------------------------------------|
A|-----------------------------------------------------------|
E|-777777777-11-11-11-11-11-11-11-11-44444444-2-2-2-2-2-2-2-2|

Thanx to me

#3.Drain You

Verse
|------------------------------|
|------------------------------|
|---2--2/6-6-6-----4-4-4-4-----|
|--------------4-4-------------|

Chorus
|-------------------------------------------------------|
|-------------------------------------------------------|
|-----4-4-4-4-4-4-4---------------4-4-4-4---------------|
|-2-0---------------0-0-0-0-0-0-0---------0-0-0-0-0-0-0-|

|-------------------------------------------------------|
|-------------------------------------------------------|
|-4-4-4-4-4-4-4---------------4-4-4-4-2-0---------------|
|---------------0-0-0-0-0-0-0-------------4-4-4-4-4-4---|

Interpretation by Dave Miller ~ dwm3@po.cwru.edu

#4.Breed

G:-------------------------------------
D:-------------------------------------
A:-------------------------------------
E:-2-2-0-0-5/-0----2-2-0-0-5/-0--------
/=bend Chorus:

G:-----------------------
D:-----------------------
A:-----------------------
E:-5-5-5-0-0--3-3-3-2-2--

Order:
Verse :x14
Chorus :x4
Verse :x14
Chorus :x4
Verse :x28

thanx to me

#5.Serve The Servants

G----------------------------------------------------------------------
D---------------------------------------5----6---2--4------------------
A-7--------------5---7-7-7---5---7---------------------------7--5---7--
E---7-7-7--5--7------------------------2--------0----------------------
[reapeat]

Chorus:
G--------------------------------------
D--------------------------------------
A-----------------4-4-4---3---2---1----
E---5-5---4---5----------------------1- [repeat]

Bridge (That legendary divorce...):
G-----------------------13-----
D--------------------------12--
A------------------------------
E---2-2-2-2---3-3-3-3----------

Thanx To:-Retard With a Flashlight

#6.Come As You Are

Intro:
G:------------------------------|
D:------------------------------|
A:---------6---6----------6---6-|
E:-6-6-7-8---8---8-8-7-6----8---|

Verse:
G:-------------------------------|
D:-------------------------------|
A:----------0-0-0-0--------------|
E:-3-3-3-3-5-------5-------------|

Chorus:
G:-------------------------------|
D:----------0-0-0-0--------------|
A:-3-3-3-3-5-------5-------------|
E:-------------------------------|
"Swear i don't have a gun..."
thanx to me

#7.Smells Like Teen Spirit

(/=slide)
(#=bend note)

Verse:
G:-------------------------
D:-------------------------
A:---------00-11-----&&-44-
E:-9/1-11-------4-44-------




Pre-Chorus:
G:-----------------
D:-----------------
A:-----1110----4433
E:-1110----4440----

Chorus:
Just play Pre-Chorus but a bit slower.

Interlude:
G:---------------------
D:---------------------
A:-------3#-33-11------
E:-11-22----------3-4--
thanx to me

#8.Sliver

Verse:
G:------------------
D:------------------
A:-3-33------310----
E:------1-11-----345
This is the part when Kurt says "Mom & Dad went to a showâ^À¦"

Chorus:
G:----------------
D:----------------
A:-0-0-22-0-0-222-
E:----------------
This is the part when Kurt says "Gramma take me home wanna be alone"

For Beginners I recommend you start of like this:

Verse:
G:-----------------
D:-----------------
A:-33----310-------
E:----11-----3/5---
NOTE:/=slide Chorus:

G:-----------------
D:-----------------
A:-0-0-22-0-0-22---
E:-----------------
thanx to me

#9.Dumb

Verse
G----------------------------------------------|
D----------------------------------------------|
A-----------------333-0-----------------333-0--|
Em-00-555-0-33----------00-555-0-33------------|

Chorus
G---------------------------|
D---------------------------|
A---------------------------|
E--0-00-000----3-33-333-----|

Middle 
G--------------------------------------|
D--------------------------------------|
A-2-22-222---3-33-333---22222--3-------|
E--------------------------------------|

THANX to OffspringBass311

#10.In bloom

Intro:
G:---------------------------
D:---------------------------
A:-1-11----------------------
E:------3---1-11-4-----------

Chorus:
G:------------------------------------
D:------------------------------------
A:--------------------66666----6------
E:-66666---622222----2----------77-55-

Verse 1:
G:----------------------------------------------------------
D:----------------------------------------------------------
A:-3---1---3----1---0---------------------------------------
E:---------------------------3----0----1----2----3----------
"He's the one who likes all our pretty songs"

Verse 2:
G:---------------------------------------------------------------------
D:---------------------------------------------------------------------
A:----------3---1---3---1--0-------------------------------------------
E:-3---3-------------------------3---3----3---0---1----2----3----3---3- "
and he likes to sing along and he likes to shoot his gun but he"

Verse 3:
G:-----------------------------------
D:-----------------------------------
A:-3----3----3---3---3-----6666666---
E:-----------------------------------
"don't know what it means"| go along with mini drum roll

End on(optional):
G:---------
D:---------
A:---------
E:--3------

thanx to me

#11.About A Girl

intro
G-------------------------------|
D-------------------------------|
A-------------------------------|
E-0-003--33---0-003333----------|

Verse
G-----------------------------|
D--------------------5---4----|
A-------------5/7-7---6---5---|
E-0-003-33--------------------|

Chorus
G-----------------------------------------------------|
D-----------------------------------------------------|
A-4-44---------------------4-44-----------------------|
E-------4-44-2-02-2-2-0----------4-44-2-22-22---------|

Bridge
G-------------------|
D-------------------|
A------77-----3-333-|
E-0-00----555-------|

Solo
G-----------------------------|
D--------------------5---4----|
A----------5/7-7---6---5------|
E-0-003-33--------------------|

Thanx to: hullabaloonication

#12.Lithium

[TUNE ONE STEP DOWN]

Intro
G|---------------------------------|
D|----------------3-3-5555---------|
A|-5-5-4-4-2-2-------------0-0-3333|
E|-------------3-3-----------------|

Verse
G|---------------------------------|
D|---------------------------------|
A|---------4-4---------------------|
E|-0-0-4-4-----3-3-5555-2-2-5555---|

Chorus
G|----------------------------------------------------|
D|----------------------5-7--7-7-5---5----------------|
A|-0-0-0-3-0--0-3--5-7------------7---7--6-5-0-3-0-3--|
E|----------------------------------------------------|

Bass solo: play the intro

Thanx to me

#13.Pennyroyal Tea

Verse
G----------------------------------------------------------------|
D----------------------------------------------------------------|
A-0--0-0--0-0-0--0--0-0--0-0-------------------------------------|
E-------------------------------------3--3--3-3-3--3--3--3-3-3---|

Chorus
G---------------------------------------------------|
D---------------------------------------------------|
A-3--3-3-3-3-3/5--5-5--5-5--1--1-1-1--1-1-0-1-0-1---|
E---------------------------------------------------|

Thanx to: Offspringbass311

#14.School

Verse
G------------------------------------|
D------------------------------------|
A------------------------------------|
E-0-00-5-5-0-0-5-5-0-0-0-0-0-0-5-5---|

Chorus
G-----------------------------------|
D-----------------------------------|
A-3-3-3-3-3-3-3-3-0-0-0-0-0-0-0-0---|
E-----------------------------------|
Thanx to me

#15.Polly

Chorus:
G:-------------------
D:-------------------
A:----------55---3335
E:-0--0-33-----------
This is the part when Kurt goes "Polly Wanna Cracker"

Verse:
G:----------------
D:----------------
A:-55-333----111--
E:--------33------
This is the part when Kurt goes "Let Me Clear Dirty Wings"
Thanx to me

#16.Very Ape

Verse
G|----------------------------|
D|*--------------------------*|
A|*--------------------------*|
E|---2/44-2/55-2/44-2/55------|

Pre-Chorus
G|----------------------------|
D|----------------------------|
A|----------------------------|
E|--2-2-2-2--0-0-0-0----------|
Thanx to Christian Brosche


Chorus
G|----------------------------|
D|*--------------------------*|
A|*-------2/5-5--------------*|
E|---4--4-------2-4-2-22------|

Thanx to  parranda@hotmail.com

#17.Lounge Act

Main Riff
|-------------------------|-------------------------|
|---0-4-------------------|---0---------------------|
|/2-------------/5-4-2-0--|/2---4----------/3-2-0---|
|-------2-3-2-3-----------|--------2-3-2-3--------3-|

PreChorus
|----------------------|
|---0-4----------------|
|-2--------------------|
|-------2-3-2-3--5-5-5-|

Chorus
|-------------------------------|--------------------------------|
|--------5h7p5------7-----------|-----------------7--------------|
|--------------7--5-----------5-|-7--7-------4--5----5-----------|
|-0---5---------------3---5-7---|------5---5------------3--0--3--|

Bridge
|------------------------------|------------------------------|
|------------------------------|-7--7--7--7--6-6-6-5-5-5-/9\--|
|------------------------------|------------------------------|
|-5--5--5--5--4-4-4-3--3-3-3---|------------------------------|

Last chorus
|---------------------------------|----------------------------------|
|----7-----7-7-----7-----5--5-5-7-|----7----7-7----7-----------------|
|-7-----7-------5-----5-----------|-7-----7-----5-----------------5--|
|---------------------------------|-------------------5--3--5---7----|
thanx to
TABBED BY BENDA  wacka_smacka@hotmail.com
Member of the bass tab army ~ www.basstabarchive.com


#18.Rape Me

G|------------------|
D|------------------|
A|-00-333-----------|
E|-------00-333-----|

Throught whole song
Thanx to me

#19.Teritorial Pissings

G-------------------------------------------------------------|
D-------------------------------------------------------------|
A-------------------8-8-8-8-8-8-8-8-5-6-6-5-6-6-5-6-6-5-6-6---|
E---5-5-5-5-5-5-5-5-------------------------------------------|

G-------------------------------------------------------------|
D-------------------------------------------------------------|
A-------------------8-8-8-8-8-8-8-8-5-5-5-5-5-5-5-5-5-5-5-5---|
E---5-5-5-5-5-5-5-5-------------------------------------------|
thanx to Yngrz


#20.All Apologies

Riff 1
G-------------------------------------7--
D----------------------------------------
A----------------------------------------
D----------------------------------------

Riff 2
G-----7-7------7-------7-7---------
D-------------------------------7-- -----
A-5-5------5-5-----5-5------5-5----
D-0-~-------------------------------

Riff 3
G---7-----------
D------------7--
A-5-----5~-5----
D---------------

Verses
G-----7-7------7-------7-7---------
D-------------------------------7--
A-5-5------5-5-----5-5------5-5----
D-0--------------------------------

Riff 4
G-----7-7------7--
D-----------------
A-5-5------5-5----
D-0---------------

Riff 5
G----------------------------------
D----------------------------------
A----------------------------------
D-5-5-5-5-3-0-3-5--5-3-5-3~-0-3-4--

Riff 6
G---------------------------------------
D---------------------------------------
A----------------------------------0~~--
D-5-5-5-5-3-0-3-5--5-3-5-3~-0-3-5-------

Riff 7
G------
D------
A-0~~--
D------

Riff 8
G-----------------------------------
D---4----------------4--------------
A-5-----5~-\7---0--5-----5~-\7---0--
D-----------------------------------

Riff 9
G---------------
D---------------
A---------------
D-0-0--0~-0--0--

Riff 10
G-----------------------------------
D---4----------------4--------------
A-5-----5~-\7---0--5-----5~-\7---0--
D-----------------------------------

Riff 11
G-----------------------------------
D-----------------------------------
A-3~----------3~----5~----3~----5~--
D-------0~--------------------------

Thanx to: Tapeworm031

#21.On A Plain

Verse
G|---------------------------------------------------------------------
D|-----------------------------------------------5-5--3--3-3-2--3-2--|
A|--5--5-5---------------------------5--5-5--------------------------|
D|----------5--5-5--3--3-3-2--3-2-----------5-----------------------|

G|---------------------------------------------------------------------
D|---------------------------------------------------------------------
A|--5--5-5--3--3-3--2--2-2--0--0-0---5--5-5----------------------------D|-------
----------------------------------------5--5-5--3--3-3-2--3-2-

Chorus
G|-------------------------------------------------------------------
D|-------------------------------------------------------------------
A|-5--5-5--------------------------5--5-5----------------------------
D|-------5--5-5--3--3-3--3--3-3-3-3------5--5-5--8--8-8--8--8-8-8-8--

Section A
G|---------------------------------------------------
D|---------------------------------------------------
A|------------------------0--0-0-0-------------------
D|--3--3-3-3--2--2-2-2------------5--5--5-5-5-5-5-5--

Section B

G|---------------------------------------------------
D|---------------------------------------------------
A|------------------------0--0-0-0-------------------
D|--3--3-3-3--2--2-2-2------------5--5--5--5-3-2-0---
Tabbed by Robert Hull Member of the Bass Tab Archive Tabbing Army
http://www.basstabarchive.com/

#22.Scentless Apprentice

Verse:
G:-------------------------
D:-------------------------
A:-------------------------
E:-0-0-2-0-2-0000-2-0------
The first time you play the verse, wait that the drums play it twice
before you come in.

Chorus:
G:-------------------------
D:-------------------------
A:-22222-33333-55555-77777-
E:-------------------------

Thanx to me


THAT'S IT

     
Добавлено: 01.08.2013
Другие материалы по этой песне:
  • Аккорды и текст

Страница создана 01.08.2013
http://primanota.ru/nirvana/live-in-rome-album-chords.htm
Привет, Гость.
Предлагаем пройти революционный курс по гитаре.
Подарок от PrimaNota.Ru, забирай!