PrimaNota.ru - самый крупный в мире бесплатный архив песенных текстов, аккордов, табулатур и нот


Nirvana - Do Re Mi - аккорды и текст, таба, видео

Регистрация Запомнить меня
Войти через:  Facebook Google Twitter Vk Yandex Mail.ru

Nirvana - Do Re Mi - аккорды и текст, таба, видео

Печатать
Просмотров: 3194
Авторы музыки: Kurt Cobain
Авторы текста: Kurt Cobain
Do Re Mi
Nirvana
No one had posted the chords to my favorite Nirvana/Kurt Cobain song so I made one for myself and decided
to share it. The song was recorded by Kurt presumably in his house somewhere and thus its low quality and
hard to decipher what he says I wrote the lyrics as I heard them and if you interpreted something different
you are free to change it and share what you heard as I'm interested. My first tab let me know what you think.


e|--------------------------------|       
B|--------------------------------|
G|-9-------6-------4-------5---7--|
D|-9---6---6---4---4---7---5---7--| power chord diagram
A|-7---6---4---4---2---7---3---5--|
E|-----4-------2-------5----------|
   E5  G#5 C#5 F#5 B5  A5  G5  D5




E5  G#5 C#5 F#5

E5        G#5
If I may, and if I might,
C#5         F#5
Lie me down weeping.
E5            G#5
And if I say, what is light,
C#5        F#5
I might be dreaming.
E5            G#5
And if I may, what is right,
C#5           F#5       B5    A5 G5 B5
Sell me time, see me he-al.

B5                     A5 G5 B5
The years in his vomit,
B5                         A5 G5
The things from his pocket,
F#5                 
The chains from his knowing,
F#5       D5
Lifelong dream.

G#5   E5
Dream. x 2
Do Re Mi. x 2

e|-----------------|-----------------|-----------------|-----------------|          
B|-----------------|-----------------|-----------------|-----------------|
G|-----------------|-----------------|-----------------|-----------------|
D|-2-1-------------|-2-1-------------|-2-1-----------0-|-2-1-0-0-0-0-0-0-|
A|-----4-2-0-------|-----4-2-0-------|-----4-2-0-0-0-0-|-0-0-4-2-0-0-0-0-|
E|-----------4-2-0-|-----------4-2-0-|-----------4-2-0-|-0-0-0-0-0-4-2-0-|

E5        G#5
If I may, and if I might,
C#5        F#5
Wake me up see me.
E5       G#5
If I do, and if I lie,
C#5         F#5
Find me out see me.
E5            G#5
And If I may, cold as ice,
C#5        F#5       B5    A5 G5 B5
I may have deceived me.

B5                     A5 G5 B5
The rays in his socket,
B5                          A5 G5
The praise from this moment.
F#5      
The chains from his socket,
F#5      D5
Wrapping me.

G#5   E5
Dream. x 2
Don't Rape Me.
Do Re Mi. x 2
Don't Rape Me.

e|-----------------|-----------------|-----------------|-----------------|          
B|-----------------|-----------------|-----------------|-----------------|
G|-----------------|-----------------|-----------------|-----------------|
D|-2-1-------------|-2-1-------------|-2-1-----------0-|-2-1-0-0-0-0-0-0-|
A|-----4-2-0-------|-----4-2-0-------|-----4-2-0-0-0-0-|-0-0-4-2-0-0-0-0-|(repeat last
E|-----------4-2-0-|-----------4-2-0-|-----------4-2-0-|-0-0-0-0-0-4-2-0-|bracket + 4)

E5              G#5
Please be good, and wish me light,
C#5         F#5
Find me how deceased.
E5            G#5
On their way, just be quiet,
C#5         F#5
Follow hate breed me.
E5            G#5
Yell or wail, and if I sigh,
C#5         F#5
Save me how teaming.
E5            G#5
And if I may, and if I might,
C#5        F#5       B5    A5 G5 B5
Golden gun to bleed me.

B5                     A5 G5 B5
The raise in his pocket,
B5                     A5 G5
The praise from his woman.
F#5      
The chains from his owner,
F#5       D5
In my tea.

G#5   E5
Hooray Me. 
They Hate Me. x2
Do Re Mi. x 6

e|-----------------|-----------------|-----------------|-----------------|          
B|-----------------|-----------------|-----------------|-----------------|
G|-----------------|-----------------|-----------------|-----------------|
D|-2-1-------------|-2-1-------------|-2-1-----------0-|-2-1-0-0-0-0-0-0-| 
A|-----4-2-0-------|-----4-2-0-------|-----4-2-0-0-0-0-|-0-0-4-2-0-0-0-0-|
E|-----------4-2-0-|-----------4-2-0-|-----------4-2-0-|-0-0-0-0-0-4-2-0-|

E
Добавлено: 30.09.2014
Другие материалы по этой песне:

Страница создана 10.03.2012
http://primanota.ru/nirvana/do-re-mi-chords.htm
Привет, Гость.
Предлагаем пройти революционный курс по гитаре.
Подарок от PrimaNota.Ru, забирай!