PrimaNota.ru - самый крупный в мире бесплатный архив песенных текстов, аккордов, табулатур и нот


Nirvana - Asshole - аккорды и текст, таба, видео

Регистрация Запомнить меня
Войти через:  Facebook Google Twitter Vk Yandex Mail.ru

Nirvana - Asshole - аккорды и текст, таба, видео

Печатать
Просмотров: 349
Asshole
Nirvana
I know this might not be completely accurate but it's quite close

Intro

Eb-------------------------------
Bb-------------------------------
Gb-------------------------------
Db-------------------------------
Ab-------------------------------
Db-2-2-8-8-2-2-0-2-2-2-8-8-2-2-0-

Main riff

Eb------------------------------------
Bb------------------------------------
Gb------------------------------------
Db-2-2-8-8-2-2-0-2-2-2-8-8-2-2-0------
Ab-2-2-8-8-2-2-0-2-2-2-8-8-2-2-0------
Db-2-2-8-8-2-2-0-2-2-2-8-8-2-2-0------

Verse

Eb------------------------------------
Bb------------------------------------
Gb------------------------------------
Db--2-2-2------2-2-2------------------
Ab--2-2-2------2-2-2------------------
Db--2-2-2------2-2-2------------------

Chorus

Eb------------------------------------------
Bb------------------------------------------
Gb------------------------------------------
Db--5----4--3--2-2-8-8-2-2-0-2-2-2-8-8-2-2-0
Ab--5----4--3--2-2-8-8-2-2-0-2-2-2-8-8-2-2-0
Db--5----4--3--2-2-8-8-2-2-0-2-2-2-8-8-2-2-0


Eb-----------------------------------------------------------
Bb-----------------------------------------------------------
Gb-----------------------------------------------------------
Db--5----10----9----5----4--3--2-2-8-8-2-2-0-2-2-2-8-8-2-2-0
Ab--5----10----9----5----4--3--2-2-8-8-2-2-0-2-2-2-8-8-2-2-0
Db--5----10----9----5----4--3--2-2-8-8-2-2-0-2-2-2-8-8-2-2-0

Eb------------------
Bb------------------
Gb------------------
Db--5----10----9----
Ab--5----10----9----
Db--5----10----9----


Outro

Eb------------------------------------
Bb------------------------------------
Gb------------------------------------
Db-4-4-10-10-4-4-2-4-4-4-10-10-4-4-2--
Ab-4-4-10-10-4-4-2-4-4-4-10-10-4-4-2--
Db-4-4-10-10-4-4-2-4-4-4-10-10-4-4-2--


Intro
Main riff 2X
Verse
Main riff 2X
Verse
Main riff 2X
Chorus
Main riff 2X
Verse
Main riff 2X
Verse
Main riff 2X
Chours
Outro 4X

If anyone has the lyrics to this song plz mail me

iamgr8haha@Hotmail.com

any questions are welcome
     
Добавлено: 16.10.2013
Другие материалы по этой песне:

Страница создана 12.04.2012
http://primanota.ru/nirvana/asshole-chords.htm
Привет, Гость.
Предлагаем пройти революционный курс по гитаре.
Подарок от PrimaNota.Ru, забирай!