PrimaNota.ru - самый крупный в мире бесплатный архив песенных текстов, аккордов, табулатур и нот


Nintendo - Legend Of Zelda-main Theme - таба, видео

Регистрация Запомнить меня
Войти через:  Facebook Google Twitter Vk Yandex Mail.ru

Nintendo - Legend Of Zelda-main Theme - таба, видео

Печатать
Просмотров: 91
-------------------------------------------------------------------------------
                             Legend of Zelda-Main Theme
-------------------------------------------------------------------------------
Tabbed by:ethansanderson4
E-mail:ethansanderson4@gmail.com

Tuning:EADGBe
Part 1
e|--------------------------1-3---3-3-1---1----------------------------------|
B|--------------1-3---3-3-4-------------4--3-3---3-1--1-3-4---3-1------1-3---|
G|0-----0-0-2-3--------------------------------------------------3--3--------|
D|--0------------------------------------------------------------------------|
A|---------------------------------------------------------------------------|
E|---------------------------------------------------------------------------|

e|---------------0-----------------------------------------------------------|
B|1----------2-----3---------------------------------------------------------|
G|--3-2--2-4-----------------------------------------------------------------|
D|-------------------0--0-0-0-0--0---0-0---0---------------------------------|
A|---------------------------------------------------------------------------|
E|---------------------------------------------------------------------------|
Part 2
e|--------------------------1-3---6-5-1----------1-3---1----------1----------|
B|--------------1-3---3-3-4---------------3-4--4---------4-3--3-4-----4-3-2--|
G|0-----0-0-2-3--------------------------------------------------------------|
D|--0------------------------------------------------------------------------|
A|---------------------------------------------------------------------------|
E|---------------------------------------------------------------------------|

e|----1---4-2----------------------------------------------------------------|
B|2-4------------------------------------------------------------------------|
G|---------------------------------------------------------------------------|
D|------------------------0--------------------------------------------------|
A|------------------2-3-4----------------------------------------------------|
E|---------------------------------------------------------------------------|
OR
e|----1---4-2---2-1-0--------------------------------------------------------|
B|2-4-----------------4-3----------------------------------------------------|
G|---------------------------------------------------------------------------|
D|-------------------------0--0-0-0-0--0---12+-------------------------------|
A|---------------------------------------------------------------------------|
E|---------------------------------------------------------------------------|

Hey! So that's all I got, had to improvise on the endings, but I did my best. 
If you have a better suggestion, please put it in the comments as a correction,
and I'll get to fixing it as soon as I can. Thanks!

************************************

| /   slide up
| \   slide down
| h   hammer-on
| p   pull-off
| ~   vibrato
| +   harmonic
| x   Mute note
| b   Bend
| pb  Pre-bend
| br  Bend release
| pbr Pre-bend release
| brb Bend release bend

************************************
Добавлено: 24.12.2015
Другие материалы по этой песне:
  • Аккорды и текст

Страница создана 24.12.2015
http://primanota.ru/nintendo/legend-of-zelda-main-theme-chords.htm
Привет, Гость.
Предлагаем пройти революционный курс по гитаре.
Подарок от PrimaNota.Ru, забирай!