PrimaNota.ru - самый крупный в мире бесплатный архив песенных текстов, аккордов, табулатур и нот


Nino Rota - A Time For Us - текст песни, таба, видео

Регистрация Запомнить меня
Войти через:  Facebook Google Twitter Vk Yandex Mail.ru

Nino Rota - A Time For Us - текст песни, таба, видео

Печатать
Просмотров: 1714
Авторы музыки: Nino Rota
Авторы текста: Larry Kusik, Eddie Snyder
\---Song:-A-Time-For-Us---------------\
 \---Composer:-Nino-Rota---------------\
  \---Transcription-by:Christian Liang--\
  /---E-Mail:christian.liang@gmail.com--/
 /---http://www.chrisliang.com---------/
/---Enjoy!----------------------------/

==========================================================================
                 A Time for Us by Nino Rota (1911–1979)
==========================================================================

Romeo And Juliet (Love Theme)
Time 3/4

[1]  Intro                                                  
E|---------------------------|---------------------------|
B|---------------------------|---------------------------|
G|-------------------0======-|-------------------0======-|
D|-----------4-------0======-|-----------2-------0======-|
A|-------2-------2-----------|-------2-------2-----------|
E|---0======================-|---0======================-|
     |   |   |   |   |   |       |   |   |   |   |   |   
     |       |       |           |       |       |     

L        1   3   1                   1   2   1
R    p   i   m   i   a           p   i   m   i   a
                     m                           m
[3]                                                       
E|---------------------------|---------------0---3-----2-|
B|---------------------------|---------------------------|
G|---------------0---2-------|---------------------------|
D|-----------4-----------4---|-----------2---------------|
A|-------2-------------------|-------2-------------------|
E|---0======================-|---0======================-|
     |   |   |   |   |   |       |   |   |   |   |   | |  
     |       |       |           |       |       |     

L        1   4       2   4           1   2       4     3

  

[5]                                                       
E||--------------------------|---0==========-0==========-|
B||--0==========-0---3-----0-|-----------1-------3-----1-|
G||*-0-------0---------------|-------0-------------------|
D||*-----0-------------------|---------------------------|
A||--2======================-|---3======================-|
E||--------------------------|---------------------------|
     |   |   |   |   |   | |     |   |   |   |   |   | | 
     |       |       |           |       |       |     

L    2               4           3       1       4     1

[7]                                                       
E|---------------------------|---------------------------|
B|---3==========-3---1-----0-|---------------0-----------|
G|-----------0---------------|---2======-------2-0---2---|
D|-------0-------------------|---2======-2---------------|
A|---2======================-|---0==-3==================-|
E|---------------------------|---------------------------|
     |   |   |   |   |   | |     |   |   |   | | |   |   
     |       |       |           |       |       |     

L    4           4   1           3   4   2     3     3
     2                           2
  

[9]                                                       
E|---------------0---3-----2-|---------------------------|
B|---0======================-|---0-----------0---3-----0-|
G|---------------------------|---0-------0---------------|
D|-----------2---------------|-------0-------------------|
A|-------2-------------------|---2======================-|
E|---0======================-|---------------------------|
     |   |   |   |   |   | |     |   |   |   |   |   | | 
     |       |       |           |       |       |     

L        1   2       4     3     2               4


[11]                             V.......................                      
E|---0==================-0---|---5======================-|
B|-------------------1-------|-------------------5-------|
G|-----------0---------------|---------------5-------5---|
D|-------2-------2-----------|-----------7---------------|
A|---3======================-|-------7-------------------|
E|---------------------------|---5======================-|
     |   |   |   |   |   |       |   |   |   |   |   |   
     |       |       |           |       |       |     

L    3   2       2   1           1   3   4   1   1   1
R                                p   p   i   m   a   m
  

[13] II.................                                                      
E|---2======-----------------|---3==========-2---0-------|
B|---3======-------------0---|-----------------------3---|
G|---4======-----------------|---------------------------|
D|---4======-----------------|-----------2---------------|
A|---2======-2======-2======-|-------2-------------------|
E|---------------------------|---0======================-|
     |   |   |   |   |   |       |   |   |   |   |   |   
     |       |       |           |       |       |     

L    1       1       1           4   1   2   3       4
     2
     4
     3
     1

[15]                                                       
E|---3---2---0==============-|---0======================-|
B|-------------------3======-|---------------------------|
G|---------------------------|-----------------------0---|
D|---------------2-----------|-----------2---------------|
A|-------------------2======-|-------2-------2-----------|
E|---0======================-|---0==============-0======-|
     |   |   |   |   |   |       |   |   |   |   |   |   
     |       |       |           |       |       |     

L    4   3       2   4               1   2   1       4
                     1
  

[17] VII.....................    V.......................
E|---7======================-|---5==================-7---|
B|-----------7-----------8---|-----------5---------------|
G|-------7-------7-----------|---------------5-----------|
D|-------------------9-------|-------7-----------7-------|
A|---------------------------|---5======================-|
E|---7======================-|---------------------------|
     |   |   |   |   |   |       |   |   |   |   |   |   
     |       |       |           |       |       |     

L    1   1   1   1   3   2       1   3   1   1   3   4 
     1                           1
R    a   i   m   i   p   m       a   p   m   i   p   a
     p                           p

[19] V.......................    VII.....................     
E|---8==================-5---|---7======================-|
B|-----------5---------------|-------------------8-------|
G|-------5-------5-----------|---------------9-------9---|
D|-------------------7-------|-----------9---------------|
A|---------------------------|-------7-------------------|
E|---5======================-|---7======================-|
     |   |   |   |   |   |       |   |   |   |   |   |   
     |       |       |           |       |       |     

L    4   1   1   1   3   1       1   1   3   4   2   4
     1                           1
R    a   i   m   i   p   a       a   p   i   m   a   m
     p                           p

[21] V.......................                                                    
E|---5======================-|---3==================-0---|
B|-----------6-----------7---|-----------1---------------|
G|-------5-------5-----------|-------0-------0-----------|
D|-------------------7-------|-------------------2-------|
A|---5======================-|---3======================-|
E|---------------------------|---------------------------|
     |   |   |   |   |   |       |   |   |   |   |   |   
     |       |       |           |       |       |     

L    1   1   2   1   3   4       4       1       2
     1                           3
R    a   i   m   i   p   m       a   i   m   i   p   a
     p                           p

[23] II......................                                                      
E|---2==============-2-------|---0==========-0---3-----2-|
B|---------------3-------3---|---------------------------|
G|-----------4---------------|---------------------------|
D|-------4-------------------|-----------2---------------|
A|---2======================-|-------2-------------------|
E|---------------------------|---0======================-|
     |   |   |   |   |   |       |   |   |   |   |   | | 
     |       |       |           |       |       |     

L    1   3   4   2   1   2           1   2       4     3
     1
R    p   p   i   m   a   m
  
[25]                                                       
E|---------------------------|---0==========-0==========-|
B|---0==========-0---3-----0-|-----------1-------3---1---|
G|---0-------0---------------|-------0-------------------|
D|-------0-------------------|---------------------------|
A|---2======================-|---3======================-|
E|---------------------------|---------------------------|
     |   |   |   |   |   | |     |   |   |   |   |   |  
     |       |       |           |       |       |     
L    2               4           3       1       4   1

[27]                                                       
E|---------------------------|---------------------------|
B|---3==========-3---1-----0-|---------------0-----------|
G|-----------0---------------|---2-------------2-0---2---|
D|-------0-------------------|---2-------2---------------|
A|---2======================-|---0==-3==================-|
E|---------------------------|---------------------------|
     |   |   |   |   |   | |     |   |   |   | | |   |  
     |       |       |           |       |       |     
L    4           4   1           3   4   2     3     3
     2                           2

[29]                                                       
E|---------------0---3-----2-|---------------------------|
B|---0======================-|---0==========-0---3-----0-|
G|---------------------------|---0-------0---------------|
D|-----------2---------------|-------0-------------------|
A|-------2-------------------|---2======================-|
E|---0======================-|---------------------------|
     |   |   |   |   |   | |     |   |   |   |   |   | | 
     |       |       |           |       |       |     

L        1   2       4     3     2               4


[31]                             V.......................     
E|---0==================-0---|---5======================-|
B|-------------------1-------|-------------------5-------|
G|-----------0---------------|---------------5-------5---|
D|-------2-------2-----------|-----------7---------------|
A|---3======================-|-------7-------------------|
E|---------------------------|---5======================-|
     |   |   |   |   |   |       |   |   |   |   |   |   
     |       |       |           |       |       |     

L    3   2       2   1           1   3   4   1   1   1
                                 1
  

[33] II.................                                                
E|---2======-----------------|---3==========-2---0-------|
B|---3======-------------0---|-----------------------3---|
G|---4======-----------------|---------------------------|
D|---4======-----------------|-----------2---------------|
A|---2======-2======-2======-|-------2-------------------|
E|---------------------------|---0======================-|
     |   |   |   |   |   |       |   |   |   |   |   |   
     |       |       |           |       |       |     

L    1       1       1           4   1   2   3       4
     2
     4
     3
     1
                              ___________________________
[35]                         | 1.                                             
E|---3---2---0---------------|---0==========-0---3-----2||
B|-------------------3======-|--------------------------||
G|---------------------------|-------------------------*||
D|---------------2-----------|-----------2-------------*||
A|-------------------2======-|-------2------------------||
E|---0======================-|---0=====================-||
     |   |   |   |   |   |       |   |   |   |   |   | | 
     |       |       |           |       |       |     

L    4   3       2   4               1   2       4     3
                     1

  
     ________________________
[37]|2.                                                
E|---0======-----------------|---------------------------|
B|---0======-----------------|---------------------------|
G|---0======---------0-------|---------------------------|
D|-----------4---------------|---2======================-|
A|---------------------------|---------------------------|
E|---0======-----------------|---0======================-|
     |   |   |   |   |   |       |   |   |   |   |   |   
     |       |       |           |       |       |     

L            3                   2


======
Legend
======
Left                       Right                   ___________
p = pull off               p = pulgar = thumb    |1.          = Ending 1
h = hammer on              i = indice = index     
/ = slide                  m = medio = middle     
= = suspend/hold Note      a = anular = ring      
V = Barre at fret 5       
  


Добавлено: 23.09.2013
Другие материалы по этой песне:
  • Аккорды и текст

Страница создана 23.09.2013
http://primanota.ru/nino-rota/a-time-for-us-chords.htm
Привет, Гость.
Предлагаем пройти революционный курс по гитаре.
Подарок от PrimaNota.Ru, забирай!