PrimaNota.ru - самый крупный в мире бесплатный архив песенных текстов, аккордов, табулатур и нот


Niño Cohete - Monstruo - таба, видео

Регистрация Запомнить меня
Войти через:  Facebook Google Twitter Vk Yandex Mail.ru

Niño Cohete - Monstruo - таба, видео

Печатать
Просмотров: 102
Уроки эстрадного вокала в Санкт-Петербурге
Capo en la 5ta

Verso:

   Fmaj7                              C
e---------------------------------------------------------------------|
B-----1---1---1---1---1---1---1---1---0---0---0---0---0---0---0---0---|
G---------------------------------------------------------------------|
D---------------------------------------------------------------------|
A---0---0---0---0---0---0---0---0---3---3---3---3---3---3---3---3-----|
E---------------------------------------------------------------------|


Coro:

    Fmaj7                              C           C#9       C
e---0-0----0-0-0----0-0-0----0-0-0----0-0----0-0-0----0-0-0----0-0-0--------|
B---1-1----1-1-1----1-1-1----1-1-1----1-1----1-1-3----3-3-1----1-1-1--------|
G---2-2----2-2-2----2-2-2----2-2-2----0-0----0-0-0----0-0-0----0-0-0--------|
S---3-3----3-3-3----3-3-3----3-3-3----2-2----2-2-2----2-2-2----2-2-2--------|
A---0-0----0-0-0----0-0-0----0-0-0----3-3----3-3-3----3-3-3----3-3-3--------|
E---0-0----0-0-0----0-0-0----0-0-0----0-0----0-0-0----0-0-0----0-0-0--------|



No es la tablatura original, pero al menos para mi suena bastante bien. En la parte del verso creo que
también suena bien si es que se tocan las cuerdas D y B. Ahí pueden ir intercalando las cuerdas A y D
según les parezca. Si algún sonido no les parece correcto o quieren agregar algo, comentenlo para corregirlo. 
Добавлено: 02.12.2015
Другие материалы по этой песне:
  • Аккорды и текст

Страница создана 02.12.2015
http://primanota.ru/nino-cohete/monstruo-chords.htm
Привет, Гость.
Предлагаем пройти революционный курс по гитаре.
Подарок от PrimaNota.Ru, забирай!