PrimaNota.ru - самый крупный в мире бесплатный архив песенных текстов, аккордов, табулатур и нот


Nine Lashes - Our Darkest Day - таба, видео

Регистрация Запомнить меня
Войти через:  Facebook Google Twitter Vk Yandex Mail.ru

Nine Lashes - Our Darkest Day - таба, видео

Печатать
Просмотров: 340
Уроки эстрадного вокала в Санкт-Петербурге
Artist: Nine Lashes
Song: Our Darkest Day
Author: Ross Burgess
Info: This is my first tab. Love nine lashes and couldn't have been more excited when I 
learned this by ear. I can't promise accuracy this is just how I play it.


   intro(with Wah)
C |----------------------------------------|
G |----------------------------------------|
Eb|-10------6~~5~~~~~~6~~5~~~~~~12--5~~~~--|
Bb|----------------------------------------|
F |----------------------------------------|
Bb|----------------------------------------|

  1st Verse
C |--------------------------------------------------------------|
G |--------------------------------------------------------------|
Eb|--------------------------------------------------------------|
Bb|--------------------------------------------------------------|
F |---9--5h7p5p0---9--5h7p5p0--3h5---9--5h7p5p0---9--5h7p5p0--2--|
Bb|--------------------------------------------------------------|

C |----------------------------------------------------------------|
G |----------------------------------------------------------------|
Eb|----------------------------------------------------------------|
Bb|----------------------------------------------------------------|
F |---9--5h7p5p0---9--5h7p5p0--3h5---9--5h7p5p0---9--5h7p5p0--2p0--|
Bb|----------------------------------------------------------------|
   Chorus
C |-------------------------------------------------|
G |-------------------------------------------------|
Eb|-------------------------------------------------|
Bb|-10----------5--------7--------3-----2-----0-----|
F |-10-(16)-----5(16)----7(16)----3(8)--2(4)--0(4)--|
Bb|-10----------5--------7--------3-----2-----0-----|

2nd Verse- part 1 4x and verse 1 again
       4x       4x
C |---------|---------|
G |---------|---------|
Eb|---------|---------|
Bb|---------|---------|
F |-0-5-7-7-|-0-3-5-5-|
Bb|---------|---------|
Chorus
Interlude
                                 2x| 1st  | 2nd
C |--------------------------------|------|------|
G |--------------------------------|------|------|
Eb|--------------------------------|------|------|
Bb|--------------------------------|------|------|
F |--------55-----55--------55-----|-333--|--3b--|
Bb|-00-010----010----00-010----010-|------|------|

C |--------------------------------------------------------------|
G |--------------------------------------------------------------|
Eb|--------------------------------------------------------------|
Bb|--------------------------------------------------------------|
F |-0-0104~-0104~--0-0104~-0103~-0-0104~-0104~--0-0104~-010-000--|
Bb|-0-0104~-0104~--0-0104~-0103~-0-0104~-0104~--0-0104~-010-000--|
Добавлено: 10.08.2013
Другие материалы по этой песне:
  • Аккорды и текст

Страница создана 10.08.2013
http://primanota.ru/nine-lashes/our-darkest-day-chords.htm
Привет, Гость.
Предлагаем пройти революционный курс по гитаре.
Подарок от PrimaNota.Ru, забирай!