PrimaNota.ru - самый крупный в мире бесплатный архив песенных текстов, аккордов, табулатур и нот


Nine Inch Nails - The Frail - аккорды и текст, таба, видео

Регистрация Запомнить меня
Войти через:  Facebook Google Twitter Vk Yandex Mail.ru

Nine Inch Nails - The Frail - аккорды и текст, таба, видео

Печатать
Просмотров: 154
The Frail
Nine Inch Nails
---------------------------12---------------------------------
--10------------------10--------8-----------7---8-------------
-------7----5----------------------7--6--------------7---6----
------------5---7---------------5--------------------5--------
--7----8--------------7----8----------------7---8-------------
----------------5---------------------5------------------5----

--------------------------------------------------------------
--10------------------7---8----------5-----8---------10-------
-------7----5------------------5--7-------------7---------9---
------------5---7--------------5------------------------------
--7----8--------------7---8----------------7----8----10-------
----------------5--------------------5--------------------5---

-------12-----------------------------------------------------
--10--------8-----------7---8---------------------------------
---------------7--6--------------5----------------------------
------------5--------------------5---7------------------------
--7----8----------------7---8---------------------------------
------------------5------------------5------------------------

--------------------------------------------------------------
--------------------------------------------------------------
--------------------------------------------------------------
--2---3---5---7-----2---3---5---7-----------------------------
--------------------------------------------------------------
--0---1---3---5-----0---1---3---5-----------------------------
Добавлено: 08.08.2013
Другие материалы по этой песне:

Страница создана 27.02.2012
http://primanota.ru/nine-inch-nails/the-frail-chords.htm
Привет, Гость.
Предлагаем пройти революционный курс по гитаре.
Подарок от PrimaNota.Ru, забирай!