PrimaNota.ru - самый крупный в мире бесплатный архив песенных текстов, аккордов, табулатур и нот


Nine Inch Nails - Piggy - аккорды и текст, таба, бас-таба, видео

Регистрация Запомнить меня
Войти через:  Facebook Google Twitter Vk Yandex Mail.ru

Nine Inch Nails - Piggy - аккорды и текст, таба, бас-таба, видео

Печатать
Просмотров: 331
Piggy
Nine Inch Nails
It's pretty simple to play, but it's nice to take
advantage of a rare bass line in a NIN song. It could
be played at various places on the fretboard, but I
think that this is the easiest. Here goes...
 
Standard Tuning

Verse:		-----------------------------------
----------------------------3--2---
-----4------------4----------------
--6-----4--3---6-----4--3----------
  Hey pig... yeah, you

Chorus (A)
----------------------------------------------------
----------------------------------------------------
----------------------------------------------------
--4--6-6-6--4--6-6-6--4--6-6-6--4--6-6-6--7-7--9--9-
    Nothing's gonna...

Chorus (B)
----------------------------------------------------
----------------------------------------------------
----------------------------------------------------
--4--6-6-6--4--6-6-6--4--6-6-6--4--6-6-6--4-6-7-----
    Nothing's gonna...

Chorus alternates A, B, A, B, etc.

Intermission (of sorts)
-----------------------------------------------
-----------------------------------------------
---------------------6-6-6-6-----------4-4--3-3
--4--6-6-6--2-2-2-2-----------4-4-4-4----------

Enjoy!
Добавлено: 19.09.2013
Другие материалы по этой песне:

Страница создана 28.02.2012
http://primanota.ru/nine-inch-nails/piggy-chords.htm
Привет, Гость.
Предлагаем пройти революционный курс по гитаре.
Подарок от PrimaNota.Ru, забирай!