PrimaNota.ru - самый крупный в мире бесплатный архив песенных текстов, аккордов, табулатур и нот


Nine Inch Nails - No You Dont - аккорды и текст, таба, бас-таба, видео

Регистрация Запомнить меня
Войти через:  Facebook Google Twitter Vk Yandex Mail.ru

Nine Inch Nails - No You Dont - аккорды и текст, таба, бас-таба, видео

Печатать
Просмотров: 214
Уроки эстрадного вокала в Санкт-Петербурге
No You Dont
Nine Inch Nails
Nine Inch Nails - "No, you don't"

from the album "The Fragile"

tabbed by sui generis aka peter hate machine
  (my_own_fall@yahoo.com  ;  
somewhat.damaged@zonebox.com)



in MHO,this is pretty easy song to be tabbed out.coz
actually
there's only one riff that goes like...

E |------------------------------------------------------
B |------------------------------------------------------
G |------------------------------------------------------
D |--2-0-2--2-3-2--2-0--3-4-/6--0-2--2-3-2--2-0--3-4-/6--
A |--2-0-2--2-3-2--2-0--3-4-/6--0-2--2-3-2--2-0--3-4-/6--
D |--2-0-2--2-3-2--2-0--3-4-/6--0-2--2-3-2--2-0--3-4-/6--

E |----------------------------------------------------
B |----------------------------------------------------
G |----------------------------------------------------
D |--0-2--2-3-2--2-0--3-4-/6--0-2--2-3-2--2-0--3-4-/6--
A |--0-2--2-3-2--2-0--3-4-/6--0-2--2-3-2--2-0--3-4-/6--
D |--0-2--2-3-2--2-0--3-4-/6--0-2--2-3-2--2-0--3-4-/6-- 
  etc.


there's also this tiny solo at the 3/4 of the song
that I THINK
it goes like

D |--5-5-5-/--0-2-2--
A |------------------
D |------------------     repeat it 16 times or so

there's also a bit at the end of this part but.. i'm
not really
a guy who works out on solos :D

anyway this is it.

  have a fooking great time!

                    peter aka sui generis
     
Добавлено: 03.07.2013
Другие материалы по этой песне:

Страница создана 02.03.2012
http://primanota.ru/nine-inch-nails/no-you-dont-chords.htm
Привет, Гость.
Предлагаем пройти революционный курс по гитаре.
Подарок от PrimaNota.Ru, забирай!