PrimaNota.ru - самый крупный в мире бесплатный архив песенных текстов, аккордов, табулатур и нот


Nine Inch Nails - Help Me Im In Hell - таба, видео

Регистрация Запомнить меня
Войти через:  Facebook Google Twitter Vk Yandex Mail.ru

Nine Inch Nails - Help Me Im In Hell - таба, видео

Печатать
Просмотров: 137
   Tabber: stephen terrones 

Slow with a little delay.  Palm mute at first and as it progresses
let the notes ring out.  Listen to it for the little changes.  Its real 
simple.   

E :---------------------------------------------
B :---------------------------------------------
G :---------------------------------------------
D :----------------------------------18---------
A :14-14-14-15-15-15-15-15-17-15-17-(17)--------
E :-0--0--0--0--0--0--0--0--0--0--0-------------


   
e :---------------------------------------------
B :---------------------------------------------
G :---------------------------------------------
D :---------------------------------------12----
A :14-14-14-15-15-15-15-15-12-12-12-11---(11)---
E :-0--0--0--0--0--0--0--0--0--0--0--0----------

________________________________________________________________
     
Добавлено: 22.09.2013
Другие материалы по этой песне:
  • Аккорды и текст

Страница создана 22.09.2013
http://primanota.ru/nine-inch-nails/help-me-im-in-hell-chords.htm
Привет, Гость.
Предлагаем пройти революционный курс по гитаре.
Подарок от PrimaNota.Ru, забирай!