PrimaNota.ru - самый крупный в мире бесплатный архив песенных текстов, аккордов, табулатур и нот


Nine Inch Nails - Getting Smaller - текст песни, таба, бас-таба, видео

Регистрация Запомнить меня
Войти через:  Facebook Google Twitter Vk Yandex Mail.ru

Nine Inch Nails - Getting Smaller - текст песни, таба, бас-таба, видео

Печатать
Просмотров: 192
Авторы музыки: Trent Reznor

Song:		Getting Smaller
Artist:		Nine Inch Nails
Album:		With Teeth
Year:		2005
Tabbed by:	Foo-Fighter
Tuning:         Eb-A-D-G-B-e

Guess this is as close as I get.
NOTICE! that the E string is tuned down a half step to an Eb
(you could tune the whole guitar down, but then you'll have
 to fit the tab for that tuning)

INTRO:
	couldn't really get that one right, but I usually 
	just mess around whit the two chords shown below...
	(You'll get the point, I guess)

E |--------|
B |--------|
G |--8--6--|
D |--8--6--|
A |--6--4--|
Eb|--------|

Verse:
	Listen to the song to get the rythm right. It is a
	bit tricky.

E |-----------------------------------|
B |-----------------------------------|
G |----------------------------x-x-x--|
D |-----8\6-----------11-11--8-x-x-x--|
A |--6--6\4--4/6--6\--9--9---6-x-x-x--|
Eb|--0-------3/5--5\------------------|

Chorus:
	You could play this in an alternative way using the
	A string, but then the heavy feel disappears a bit

E |----------------------------------------|
B |----------------------------------------|
G |----------------------------------------|
D |----------------------------------------|
A |----------------------------------------|
Eb|-15--12-11-0-11-10-0-9-0-10-0-12-0-15-0-|

Brigde:

E |---------------------------|
B |---------------------------|
G |---------------------------|
D |---------------------------|
A |-9-9--9-9--4--6-6---6-6-6--|
Eb|-8-8--8-8--3--5-5---5-5-5--|

Verse:

Chorus:

END!

Didn't tab the second guitar. You'd have to figure that one out yourself.
have fun

Rate and commen, Thx

Mjorgensen88@gmail.com
Добавлено: 03.03.2012
Другие материалы по этой песне:
  • Аккорды и текст

Страница создана 25.02.2012
http://primanota.ru/nine-inch-nails/getting-smaller-chords.htm
Привет, Гость.
Предлагаем пройти революционный курс по гитаре.
Подарок от PrimaNota.Ru, забирай!