PrimaNota.ru - самый крупный в мире бесплатный архив песенных текстов, аккордов, табулатур и нот


Nine Inch Nails - Collector - текст песни, таба, бас-таба, видео

Регистрация Запомнить меня
Войти через:  Facebook Google Twitter Vk Yandex Mail.ru

Nine Inch Nails - Collector - текст песни, таба, бас-таба, видео

Печатать
Просмотров: 253
The Collector
NiN
With Teeth

Very weird rhythm just listen to the song to find the tempo

b=Bend

Pre-Chorus
E-------------------------------------------------------------|
B-------------------------------------------------------------|
G-5-5-55-5-5-55--5-5---5-5-5-5-555-5-5-55-5-5-5---------------|
D-------------------------------------------------------------|
A-------------------------------------------------------------|
E-------------------------------------------------------------|

Chorus
E----------------------------------------------8-8-888-9b-----|
B-------------------------------------------------------------|
G-10-10-10-10-10-10-10-10--5-5-5-5-5-5-5-5--------------------|
D-10-10-10-10-10-10-10-10--5-5-5-5-5-5-5-5--------------------|
A-8--8--8--8--8--8--8--8---3-3-3-3-3-3-3-3--------------------|
E-------------------------------------------------------------|

After the first Chorus
E-------------------------------------------------------------|
B-------------------------------------------------------------|
G-------------------------------------------------------------|
D-------------------------------------------------------------|
A-------------------------------------------------------------|
E-----11-10-8-10---11-10-8-10---11-10-8-10--------------------|
Добавлено: 14.04.2012
Другие материалы по этой песне:

Страница создана 06.03.2012
http://primanota.ru/nine-inch-nails/collector-chords.htm
Привет, Гость.
Предлагаем пройти революционный курс по гитаре.
Подарок от PrimaNota.Ru, забирай!