PrimaNota.ru - самый крупный в мире бесплатный архив песенных текстов, аккордов, табулатур и нот


Nine Inch Nails - Came Back Haunted - текст песни, таба, видео

Регистрация Запомнить меня
Войти через:  Facebook Google Twitter Vk Yandex Mail.ru

Nine Inch Nails - Came Back Haunted - текст песни, таба, видео

Печатать
Просмотров: 88
Авторы музыки: Trent Reznor
Авторы текста: Trent Reznor
Song: Came Back Haunted
Artist: Nine Inch Nails
Album: Hesitation Marks
Tuning: Standard


INTRO
|----------7---------7---------7---------7-| 
|------------------------------------------|
|------------------------------------------|
|------------------------------------------| 
|---0---000---0---000---0---000---0---000--|
|-5---------5---------5---------5----------|


VERSE
Repeats throughout song
|-----------------------------------------------------------------| 
|-----------------------------------------------------------------|
|-----------------------------------------------------------------|
|-----------------------------------------------------------------| 
|-----------------------------------------------------------------|
|-5-6--/7---5---5-5h6-6h7-7-5-7-5-5-6--/7---5---5-5h6-6h7-7-5-7-5-|


At 0:25
|-4(pb5)-d-4-b-5~-------------------------------------------------| 
|-----------------------------------------------------------------|
|-----------------------------------------------------------------|
|-----------------------------------------------------------------| 
|-----------------------------------------------------------------|
|-----------------------------------------------------------------|

0:43
Repeats till Chorus
|-15~----14~-------------------------15~----14~-------------------| 
|-------------16~--------------------------------16~--------------|
|----------------------18~--------------------------------17~-----|
|-----------------------------------------------------------------| 
|-----------------------------------------------------------------|
|-----------------------------------------------------------------|


CHORUS
2x
|-----------------------------------------------------------------| 
|-----------------------------------------------------------------|
|-----------------------------------------------------------------|
|-5-5-5-5-5-5-5-5-5-5-5-5-5-5-5-5-2-2-2-2-2-2-2-2-2-2-2-2-2-2-2-2-|
|-5-5-5-5-5-5-5-5-5-5-5-5-5-5-5-5-2-2-2-2-2-2-2-2-2-2-2-2-2-2-2-2-|
|-3-3-3-3-3-3-3-3-3-3-3-3-3-3-3-3-0-0-0-0-0-0-0-0-0-0-0-0-0-0-0-0-|

|-----------------------------------------------------------------| 
|-----------------------------------------------------------------|
|-4-4-4-4-4-4-4-4-4-4-4-4-4-4-4-4-4-4-4-4-4-4-4-4-4-4-4-4-4-4-4-4-| 
|-4-4-4-4-4-4-4-4-4-4-4-4-4-4-4-4-4-4-4-4-4-4-4-4-4-4-4-4-4-4-4-4-| 
|-2-2-2-2-2-2-2-2-2-2-2-2-2-2-2-2-2-2-2-2-2-2-2-2-2-2-2-2-2-2-2-2-|
|-----------------------------------------------------------------|

Post chorus
|-5-5-5-5-5-5\2-2/5-5-5-5-5-5-5-5-5-5-5-5-5-5\2-2/5-5-5-5-5-5-5-5-| 
|-----------------------------------------------------------------|
|-----------------------------------------------------------------|
|-----------------------------------------------------------------| 
|-----------------------------------------------------------------|
|-----------------------------------------------------------------|


VERSE II

2:06
DROP B - only if you want the correct octaves. otherwise play it an octave higher in standard.
2x
C#|-----------------------------------------------------------------| 
G#|-----------------------------------------------------------------|
E |-----------------------------------------------------------------|
B |-----------------------------------------------------------------| 
F#|-8tb-^-^-^-^-^-^-^-^-^-^-^-^-^-^-^-^-----------------------------|
B |-------------------------------------0~--------------------------|


CHORUS II (back in standard as usual)


SOLO 
              3x
|------------|-------------------------------------------------------------------| 
|------------|-------------------------------------------------------------------|
|------------|-------------------------------------------------------------------|
|-7--9--7--9-|--9-9-9-9-9-9/10---6-6-6-6-6-6/7-----------------------------------| 
|------------|-----------------------------------5-5-5-5-5-5-7---5---7---5---2---|
|------------|-------------------------------------------------------------------|


CHORUS III


OUTRO
4:25
|-----7-----7---7-----7-------7-7n*----7-----7---7-----7-------7-7n*-| 
|--------------------------------------------------------------------|
|--------------------------------------------------------------------|
|--------------------------------------------------------------------| 
|---0-----0---------0-------0--------0-----0---------0-------0-------|
|-5-----5---------5-------5--------5-----5---------5-------5---------|

4:41
3x
|--------------------------------------------------------------------| 
|--------------------------------------------------------------------|
|--------------------------------------------------------------------|
|-10---9~------------------------------------------------------------| 
|-----------------10---11~---------5--b6~---------2~-----------------|
|--------------------------------------------------------------------|

and that's it!

b- bend
pb - Prebend
n* - Natural Harmonic
/ - slide up
\ - slide down
tb - trill bend
^ - indication that bended note is to be picked
Добавлено: 28.06.2013
Другие материалы по этой песне:
  • Аккорды и текст

Страница создана 28.06.2013
http://primanota.ru/nine-inch-nails/came-back-haunted-chords.htm
Привет, Гость.
Предлагаем пройти революционный курс по гитаре.
Подарок от PrimaNota.Ru, забирай!