PrimaNota.ru - самый крупный в мире бесплатный архив песенных текстов, аккордов, табулатур и нот


Nine Black Alps - Waiting Room - таба, видео

Регистрация Запомнить меня
Войти через:  Facebook Google Twitter Vk Yandex Mail.ru

Nine Black Alps - Waiting Room - таба, видео

Печатать
Просмотров: 54
------------------------ Nine Black Alps -----------------------------------
------------------------- Waiting Room -------------------------------------

Tabbed by: Diêgo Palmeira


--> Down the chord 'E' to 'D' and Capo on 3 <--

(You have to play with a little beat in the chords, like them play in this video: 
http://www.youtube.com/watch?v=mFxIzdgZ55Y&)

Intro/Verse:

Gather round some place of run shit,
No one talks they don't deserve it
E|----------------------------|
B|-1--1--1----3--3--3---------|
G|-2--2--2----4--4--4---------|
D|-3--3--3----5--5--5---------|
A|----------------------------|
D|-0--0--0----0--0--0---------|

Please just don't leave me alone
E|----------------------------|
B|-1--1---3--3--1----1---1----|
G|-2--2---0--0--0h2--0h2-0h2--|
D|-2--2---0--0--0----0---0----|
A|-0--0-----------------------|
D|--------5--5--3----3---3----|

Chorus:

And I'm so sorry to hear
E|-----------------0--0--0----|
B|-1--1---3--3--3--1--1--1----|
G|-2--2---0--0--0--0--0--0----|
D|-2--2---0--0--0--2--2--2----|
A|-0--0------------3--3--3----|
D|--------5--5--5-------------|

That you got so near
E|-1--1--1---0--0--0----------|       E|-1-
B|-1--1--1---1--1--1----------|       A|-1-
G|-1--1--1---0--0--0----------| ----> G|-1-  (This is a eyelash half)
D|-3--3--3---2--2--2----------|       D|-3-
A|-x--x--x---3--3--3----------|       A|-x-
D|-3--3--3--------------------|       D|-3-

Felt that way too soon
E|----------------------------|
B|-1--1--1--3--3--3h5-3-------|
G|-2--2--2--0--0--0---0-------|
D|-2--2--2--0--0--0---0-------|
A|-0--0--0--------------------|
D|----------5--5--5---5-------|

Hope to hear you say
E|-----------------0--0--0----|
B|-1--1---3--3--3--1--1--1----|
G|-2--2---0--0--0--0--0--0----|
D|-2--2---0--0--0--2--2--2----|
A|-0--0------------3--3--3----|
D|--------5--5--5-------------|

It's simply in your way
E|-1--1--1---0--0--0----------|
B|-1--1--1---1--1--1----------|
G|-1--1--1---0--0--0----------|
D|-3--3--3---2--2--2----------|
A|-x--x--x---3--3--3----------|
D|-3--3--3--------------------|

From this way they were
E|----------------------------|
B|-1--1--1--3--3--3h5-3-------|
G|-2--2--2--0--0--0---0-------|
D|-2--2--2--0--0--0---0-------|
A|-0--0--0--------------------|
D|----------5--5--5---5-------|

Solo:

E|----------------------------|
B|-1--1--1----3--3--3---------|
G|-2--2--2----4--4--4---------|
D|-3--3--3----5--5--5---------|
A|----------------------------|
D|-0--0--0----0--0--0---------|

E|----------------------------|
B|-1--1---3--3--1----1---1----|
G|-2--2---0--0--0h2--0h2-0h2--|
D|-2--2---0--0--0----0---0----|
A|-0--0-----------------------|
D|--------5--5--3----3---3----| 

End with this:

E|----------------0-----------|
B|-1---1---1------1-----------|
G|-0h2-0h2-0h2----2-----------|
D|-0---0---0------2-----------|
A|----------------0-----------|
D|-3---3---3------------------|
Добавлено: 09.10.2013
Другие материалы по этой песне:
  • Аккорды и текст

Страница создана 28.08.2013
http://primanota.ru/nine-black-alps/waiting-room-chords.htm
Привет, Гость.
Предлагаем пройти революционный курс по гитаре.
Подарок от PrimaNota.Ru, забирай!