PrimaNota.ru - самый крупный в мире бесплатный архив песенных текстов, аккордов, табулатур и нот


Nine Black Alps - Intermission - текст песни, таба, видео

Регистрация Запомнить меня
Войти через:  Facebook Google Twitter Vk Yandex Mail.ru

Nine Black Alps - Intermission - текст песни, таба, видео

Печатать
Просмотров: 119
Nine Black Alps
Intermission from the album Everything Is
Tabbed by Sam King
Standard Tuning

Verse/intro

e---------------------|---------------------|
b----------8--------8-|----------8----8-----|
g-------0--------0----|-------0-----0----0--|
D-----9--------9------|-----9---------------|
A---------------------|----------10---9-----|
E-0--------0----------|-0-------------------|

e----------------------|----------------------|
b----------0---------0-|----------0---------0-|
g----0---------0-------|----0---------0-------|
D------10--------10----|------10--------10----|
A----------------------|----------------------|
E-8--------8-----------|-8--------8-----------|

Slide Guitar Part

e----------|----------|----------|---------|
b-8-----10-|-8-----10-|-5-----10-|-8-------|
g----------|----------|----------|---------|
D----------|----------|----------|---------|
A----------|----------|----------|---------|
E----------|----------|----------|---------|


Chorus

e-------------------|------------------|
b---------0-------0-|---------0------0-|
g----0-------0------|----0-------0-----|
D------0-------0----|------0-------0---|
A-------------------|------------------|
E-10--10--10--10----|-10--10--12--10---|

e----------------------|----------------------|
b----------0---------0-|----------0---------0-|
g----0---------0-------|----0---------0-------|
D------10--------10----|------10--------10----|
A----------------------|----------------------|
E-8--------8-----------|-8--------8-----------|

Bridge

e-----------------|-----------------|-----------------|
b-8---3---5---3---|-1---3---1---0---|-----1p0-----1p0-|
g-0---0---0---0---|-0---0---0---0---|-0-------0-------|
D-----------------|-----------------|---2-------2-----|
A-10--5---7---5---|-3---5---3---2---|-3-------3-------|
E-----------------|-----------------|-----------------|

e-----------------|
b-----1p0-----1p0-|
g-0-------0-------|
D---2-------2-----|
A-3-------3-------|
E-----------------|

Slide Guitar Part

e-----------|-----------|-------|-----|
b-8----10---|-12---15---|-13----|-----|
g-----------|-----------|-------|-----|
D-----------|-----------|-------|-----|
A-----------|-----------|-------|-----|
E-----------|-----------|-------|-----|
Добавлено: 07.06.2012
Другие материалы по этой песне:

Страница создана 07.06.2012
http://primanota.ru/nine-black-alps/intermission-chords.htm
Привет, Гость.
Предлагаем пройти революционный курс по гитаре.
Подарок от PrimaNota.Ru, забирай!