PrimaNota.ru - самый крупный в мире бесплатный архив песенных текстов, аккордов, табулатур и нот


Nine Black Alps - Behind Your Eyes - текст песни, таба, видео

Регистрация Запомнить меня
Войти через:  Facebook Google Twitter Vk Yandex Mail.ru

Nine Black Alps - Behind Your Eyes - текст песни, таба, видео

Печатать
Просмотров: 93
Уроки эстрадного вокала в Санкт-Петербурге
----------------------------------------------------------------------------
                    BEHIND YOUR EYES - The Nine Black Alps
----------------------------------------------------------------------------
Tabbed by: Claire Winter
Email: cewinter@hotmail.co.uk

If you have any trouble with the rhythm, email me and i'll send you the tab in powertab format!

Tuning:EADGBE

INTRO
E|-2-------2-------------------0-----------0-----------0-----------0-------|
B|-----0-------3---3---3---3-------3---3-------3---3-------3---3-------3---|
G|---0-------0---4-------0---0-------0---0-------0---0-------0---0-------0-|
D|-2-----2-----0-----0-----------------------------------------------------|
A|-------------------------3-----3-----3-----3-----3-----3-----3-----3-----|
E|-------------------------------------------------------------------------|

E|-----------------------------------------------------|
B|-3---2---3----3---2---3----3---2---3----3---2---3----|
G|---0-------0----0-------0----0-------0----0-------0--|
D|-----------------------------------------------------|
A|-0-----0------0-----0------0-----0------0-----0------|
E|-----------------------------------------------------|

E|----------------------------------------------------|
B|-3---0---3----3---0---3---3---0---3----3---0---3----|
G|---0-------0----0-------0---0-------0----0-------0--|
D|----------------------------------------------------|
A|----------------------------------------------------|
E|-3-----3------3-----3---1/3-----3------3-----3------|

VERSE

   Down the wire..........Through the wall.........Open voice........
E|-1-------1----------------1-------1---------------1------1---------------|
B|-----0--------3---0---3-------0-------3---0---3-------0------3---0---3---|
G|---3-------3----0-------0---3-------3---0-------0---3------3---0-------0-|
D|-------------------------------------------------------------------------|
A|-------------------------------------------------------------------------|
E|-3-----3------3-----3-----3-----3-----3-----3-----3-----3----3-----3-----|

   Won't hear my call
E|-------------------------------|
B|--3---3---2---3-------3--------|
G|----0-------0-----4-------4----|
D|--------------------0-------0--|
A|--1-----0----------------------|
E|----------------3-------3------|

   Down the tracks........ To the east............ When i'm gone  
E|-1-------1---------------1-------1---------------1------1---------------|
B|-----0-------3---0---3-------0-------3---0---3-------0------3---0---3---|
G|---3-------3---0-------0---3-------3---0-------0---3------3---0-------0-|
D|------------------------------------------------------------------------|
A|------------------------------------------------------------------------|
E|-3-----3-----3-----3-----3-----3-----3-----3-----3-----3----3-----3-----|

   You'll be released
E|-------------------------------|
B|--3---3---2---3-------3--------|
G|----0-------0-----4-------4----|
D|--------------------0-------0--|
A|--1-----0----------------------|
E|----------------3-------3------|

CHORUS

  If that's the way you feel.....  There's no easy way out
E|-----------------------------------------------------------|
B|---3---2---2---2---3---2---2----3---2---2---2---3---2---2--|
G|---0-----0-------0-------0------0-----0-------0-------0----|
D|-----------------------------------------------------------|
A|-0---0-------0-------0--------0---0-------0-------0--------|
E|-----------------------------------------------------------|


E|-----------------------------------------------------------|
B|----3---0---0---0---3---0---3---0---0---0---0---3---0---0--|
G|----0-----0-------0-------0---0-------0-------0------------|
D|-----------------------------------------------------------|
A|-----------------------------------------------------------|
E|--3---3-------3-------3---1/3-----3-------3-------3---3----|

  If that's the way you feel.....  There's no easy way out
E|-----------------------------------------------------------|
B|---3---2---2---2---3---2---2----3---2---2---2---3---2---0--|
G|---0-----0-------0-------0------0-----0-------0-------0----|
D|-----------------------------------------------------------|
A|-0---0-------0-------0--------0---0-------0-------0--------|
E|-----------------------------------------------------------|

                            ...Don't you wanna be...
E|-----------------------------------------------------------|
B|---3---0---0---0---3---0---0----3---0---0---0---3---0---0--|
G|---2-----2-------0-------0------2-----2-------0-------0----|
D|-----------------------------------------------------------|
A|-----------------------------------------------------------|
E|-0---0-------0-------0--------0---0-------0-------0--------|

                            ...Part of the machine...
E|-----------------------------------------------------------|
B|---3---3---0---2---3---2---2----3---3---0---2---3---2---2--|
G|---2-----2-------2-------2------2-----2-------2-------2----|
D|-----------------------------------------------------------|
A|-0---0-------0-------0--------0---0-------0-------0--------|
E|-----------------------------------------------------------|

                            ...Burning bright to be...
E|----------------------------------------------------------|
B|---3---0---0---0---3---0---0---3---0---0---0---3---0---0--|
G|---2-----2-------0-------0-----2-----2-------0-------0----|
D|----------------------------------------------------------|
A|----------------------------------------------------------|
E|-0---0-------0-------0-------0---0-------0-------0--------|
                           
                            ...The spark ignites...
E|----------------------------------------------------------|
B|---3---3---0---2---3---2---2---4---0---0---0---4---0---0--|
G|---2-----2-------2-------2-----0-----0-------0-------0----|
D|----------------------------------------------------------|
A|-0---0-------0-------0-------2---2-------2-------2--------|
E|----------------------------------------------------------|

 ...The light behind your eyes...
E|-------------------------------|
B|----3---1---1---1---3---1---1--|
G|----2-----2-------2-------2----|
D|--0---0-------0----------------|
A|----------------------0--------|
E|-------------------------------|


E|---------------------------------------------------------|
B|----3---0---0---0---3---0---3---0---0---0---0---3---0----|
G|----------0-------0-----------0-------0-------0-------0--|
D|---------------------------------------------------------|
A|---------------------------------------------------------|
E|--3---3-------3-------3---1/3-----3-------3-------3------|

REPEAT WHOLE TAB

OUTRO
E|--7---------7--5---------5--3---------3--2---------2--|
B|------3------------3------------3------------3--------|
G|----------0------------0------------0------------0----|
D|----5-------5----5-------5----5-------5----5-------5--|
A|------------------------------------------------------|
E|--3-----3------3-----3------3-----3------3-----3------|


E|--3---------3--2---------2---------------0------------|
B|------3------------3--------3---3-----3------3--------|
G|----------0------------0------------0------------0----|
D|----5-------5----5-------5----5-------5----5-------5--|
A|------------------------------------------------------|
E|--0-----0------0-----0------0-----0------0-----0------|


E|----------------------------0-------0----0-------0----|
B|--2---3---2----2---3---2--------3------------3--------|
G|----0-------0----0-------0----0-------0----0-------0--|
D|------------------------------------------------------|
A|--0-----0------0-----0------3-----3------3-----3------|
E|------------------------------------------------------|


E|-----------------------------------------------------|
B|--3---0---3----3---0---3---3---0---3----3---0---3----|
G|----0-------0----0-------0---0-------0----0-------0--|
D|-----------------------------------------------------|
A|-----------------------------------------------------|
E|--3-----3------3-----3---1/3-----3------3-----3------|


E|------------------------------------------------------3--||
B|--2---3---2----2---3---2--------3------------3--------3--||
G|----0-------0----0-------0--5-------5----5-------5----4--||
D|------------------------------5-------5----5-------5--5--||
A|--0-----0------0-----0--------------------------------5--||
E|----------------------------4-----4------4-----4------3--||


| /  slide up
| \  slide down
| h  hammer-on
| p  pull-off
| ~  vibrato
| +  harmonic
| x  Mute note
============================================================================
Добавлено: 06.03.2012
Другие материалы по этой песне:

Страница создана 06.03.2012
http://primanota.ru/nine-black-alps/behind-your-eyes-chords.htm
Привет, Гость.
Предлагаем пройти революционный курс по гитаре.
Подарок от PrimaNota.Ru, забирай!