PrimaNota.ru - самый крупный в мире бесплатный архив песенных текстов, аккордов, табулатур и нот


Nina Romic - Bicikl - таба, видео

Регистрация Запомнить меня
Войти через:  Facebook Google Twitter Vk Yandex Mail.ru

Nina Romic - Bicikl - таба, видео

Печатать
Просмотров: 29
Tabbed by Marino Kumir (adriat1c@hotmail.com)

CAPO 4

   D                               F#        
e|-------------------------------|---------------------------------|
B|-------------------------------|---------------------------------|
G|---2---2---2---2---2---2---2---|---3---3---3---3---3---3---3---3-|
D|-0---0---0---0---0---0---0---0-|-----4-------4-------4-------4---|
A|-------------------------------|-4-------4-------4-------4-------|
E|-------------------------------|---------------------------------|
                            
   Bm                              G               Gm
e|---------------------------------|---------------------------------|
B|---------------------------------|---------------------------------|
G|---4---4---4---4---4---4---4---4-|---0---0---0---0---0---0---0---0-|
D|-4---4---4---4---4---4---4---4---|-----0-------0-------0-------0---|
A|---------------------------------|---------2-------1-------1-------|
E|---------------------------------|-3-------------------------------|

između stihova Bm* se svira ovako

   Bm*
e|---------------0-------0--------|
B|-------------------3-------3----|
G|---4---4---4-------------------4|
D|-4---4---4---4---4---4---4---4--|
A|--------------------------------|
E|--------------------------------|

D  F#  Bm*  G  Gm

D                  F#   Bm                     G       Gm
  Samo da znaš dio tebe sam upravo kroz prozor vidjela
D                   F#     Bm                 G       Gm
  Samo da znaš tvoj bicikl sad vozi moja prijateljica
         D
I bio je naslonjen na moj
                F#
Bio je, bio je, naslonjen na moj
                Bm
Bio je, bio je, naslonjen na moj
                G                Gm
Bio je, bio je, naslonjen na moj
         D
I bio je naslonjen na moj
                F#
Bio je, bio je, naslonjen na moj
                Bm
Bio je, bio je, naslonjen na moj
                G                Gm
Bio je, bio je, naslonjen na moj


D  F#  Bm*  G  Gm

D                 F#    Bm                  G       Gm
  I stvarno pojma nemam gdje se skrivaš jel bicikliraš
D                F#        Bm             G    Gm
  ali imam dvije boje tvog bicikla dok ga vozi Jasmina (vozis ja snivam)
D
Naslonjen na moj
                F#
Bio je, bio je, naslonjen na moj
                Bm
Bio je, bio je, naslonjen na moj
                G                Gm
Bio je, bio je, naslonjen na moj
         D
I bio je naslonjen na moj
                F#
Bio je, bio je, naslonjen na moj
                Bm
Bio je, bio je, naslonjen na moj
                G                Gm
Bio je, bio je, naslonjen na moj

D  F#  Bm  G  Gm
Ha a   a   a  ah

D  F#  Bm*  G  Gm
Добавлено: 29.07.2015
Вам также может быть интересно:
Другие материалы по этой песне:
  • Аккорды и текст

Страница создана 29.07.2015
http://primanota.ru/nina-romic/bicikl-chords.htm
Привет, Гость.
Предлагаем пройти революционный курс по гитаре.
Подарок от PrimaNota.Ru, забирай!