PrimaNota.ru - самый крупный в мире бесплатный архив песенных текстов, аккордов, табулатур и нот


Nina Nastasia - Underground - аккорды и текст, видео

Регистрация Запомнить меня
Войти через:  Facebook Google Twitter Vk Yandex Mail.ru

Nina Nastasia - Underground - аккорды и текст, видео

Печатать
Просмотров: 154
Underground
Nina Nastasia
Intro:

Acoustic guitar:
Fig. 1
|----------------------------|
|----------------------------|
|----0---0---0----2---2---2--|
|----------------------------|
|--3---3---3----0---0---0----|
|----------------------------|

Electric guitar (with rotary):
Fig. 2
|---------------12-10-8-7h8p7/5--|----------------12--15-15-15--|
|--13-----10---------------------|--13-----10-------------------|
|------9------9------------------|------9------9----------------|
|--------------------------------|------------------------------|
|--------------------------------|------------------------------|
|--------------------------------|------------------------------|



Verse:
Fig. 1 x3
I'm awake
I know 'cause I'm afraid
Of every little thing
            G 
It makes me think of you

Fig. 1 x4
Fig. 2 (first half)

Fig. 1 x3
You're so serene
Underneath your wit
You're watching me
                   G
Tripping my saddle shoes



Chorus:
F   E        Am      
Parachute me down

        E               F
To that cold, cold underground

     G
Save me

Save me

Fig. 1 x4
Fig. 2



Verse:
Fig. 1 x3
Quiet now
It's time to say your prayer
God is near
              G
They say he's watching you



Chorus:
F   E        Am
Parachute me down

        E               F
To that cold, cold underground

     G
Save me

F   E        Am
Parachute me down

        E               F
To that cold, cold underground

     G
Save me


Save me

Fig.1 x4
Fig.2 (first half)


Outro:
Fig. 1 x(fade out)
I believe
Shhh...
I believe
Shhh...
I believe
Shhh...
I believe
Shhh...
Shhh..


Добавлено: 11.05.2015
Вам также может быть интересно:
Другие материалы по этой песне:
  • Аккорды и текст

Страница создана 01.07.2012
http://primanota.ru/nina-nastasia/underground-chords.htm
Привет, Гость.
Предлагаем пройти революционный курс по гитаре.
Подарок от PrimaNota.Ru, забирай!