PrimaNota.ru - самый крупный в мире бесплатный архив песенных текстов, аккордов, табулатур и нот


Nina Nastasia - Too Much In Between - аккорды и текст, видео

Регистрация Запомнить меня
Войти через:  Facebook Google Twitter Vk Yandex Mail.ru

Nina Nastasia - Too Much In Between - аккорды и текст, видео

Печатать
Просмотров: 121
Too Much In Between
Nina Nastasia
Intro:

Fig.1
|-------------------------------------|
|----0---0---0---0-----0---0---0---0--|
|-------------------------------------|
|-------------------------------------| x2
|--3---3---3---3----------------------|
|--------------------3---3---3---3----|


Verse:
Fig.1 x4

My friend said that she saw you last
That you talked a while
And it was good but sad


Fig. 2
|---------------------------------------------------------|
|----0---0---0---0-----0---0---0---0----0---0---0---0-----|
|---------------------------------------------------------|
|---------------------------------------------------------|
|---------------------------------------------------------|
|---3---3---3---3----2---2---2---2----1---1---1---1----0--|
And I can't believe how long its been
I don't know what to do about it


Fig.1 x2


Verse:
Fig.1 x4
Summertime
We're all drinking beers
We can't live without us
We all work so hard

Fig.2
And I can't believe how long its been
I don't know what to do about it



Chorus:
Fig.1 x3
Too much in between
There's too much in between
Too much in between
There's too much in between

Fig.2

Fig.1 x8


Verse:
Fig.1 x4
Now and then I think about
How we get along without you


Chorus:
Fig.1 x3
Too much in between
There's too much in between
Too much in between
There's too much in between

Fig.2
Добавлено: 11.05.2015
Другие материалы по этой песне:
  • Аккорды и текст

Страница создана 21.05.2012
http://primanota.ru/nina-nastasia/too-much-in-between-chords.htm
Привет, Гость.
Предлагаем пройти революционный курс по гитаре.
Подарок от PrimaNota.Ru, забирай!