PrimaNota.ru - самый крупный в мире бесплатный архив песенных текстов, аккордов, табулатур и нот


Nina Hagen - Unbeschreiblich Weiblich - аккорды и текст, видео

Регистрация Запомнить меня
Войти через:  Facebook Google Twitter Vk Yandex Mail.ru

Nina Hagen - Unbeschreiblich Weiblich - аккорды и текст, видео

Печатать
Просмотров: 99
Unbeschreiblich Weiblich
Nina Hagen
Nina Hagen - Unbeschreiblich Weiblich
song: https://www.youtube.com/watch?v=ZLqzr29m6E4

INTRO
   Am                            F           F7M       F
e|-5-5-5-5-5-5-5-5-5-5-------------------------------------|\
B|-5-5-5-5-5-5-5-5-5-5-----------6-6-5-5-6-6-5----5--5-6---| 4x
G|-5-5-5-5-5-5-5-5-5-5-----------5-5-5-5-5-5-5----5--5-5---| /
D|-----7-7-----7-7-----7--7--7-7-5-5-5-5-5-5-5----5--5-7---|/
A|------------------------0--0-0---------------------------|
E|---------------------------------------------------------| 

MAIN GUITAR RIFF (over riff)
   Am                    F                   Am                   F
e|-------------------17--20b--20b--20br-------------------------------|
B|-20---20pb----17h20------------------------18br--15-----------------|
G|----------------------------------------17----------17-14----14br---|
D|----------------------------------------------------------17--------|
A|--------------------------------------------------------------------|
E|--------------------------------------------------------------------|

   Am                    F                   Am                   F
e|-------------------17--20b--20b--20br------17br--15-----------------|
B|-20---20pb----17h20---------------------17----------17-15-----------|
G|----------------------------------------------------------16-17br---|
D|--------------------------------------------------------------------|
A|--------------------------------------------------------------------|
E|--------------------------------------------------------------------|

VERSE 1
Am                 F
 Ich war schwanger, mir ging's zum Kotzen
Am                                  F
 Ich wollt's nicht haben, brauchste gar nicht erst zu fragen!
Am                   F
 Ich fress' Tabletten und überhaupt Mann!
Am                             F
 Ich schaff' mir keine kleinen Kinder an. 
Nein, nein, nein!

CHORUS
C               Eb               Bb       
 Warum soll ich meine Pflicht als Frau erfüllen?
    F        C        F         C
Für wen? Für die? Für dich? Für mich?
    C          Bb         F
Ich hab' keine Lust meine Pflicht zu erfüllen!
    F               Eb
Für dich nicht, für mich nicht,
    Ab   G     F
Ich hab' keine Pflicht! 

MAIN GUITAR RIFF (first bar only)
Am    \ 2x
F     /

VERSE 2
Am                 F
 Als es vorbei war, ging's mir zum Kotzen
Am                             F
 Jetzt ist es Zeit endlich mal aufzumotzen.
Am                   F
 Ich fress' Tabletten und überhaupt Mann!
Am                             F
 Ich schaff' mir keine kleinen Kinder an! 
Nein, nein, nein!

CHORUS
C               Eb               Bb       
 Warum soll ich meine Pflicht als Frau erfüllen?
    F        C        F         C
Für wen? Für die? Für dich? Für mich?
    C          Bb         F
Ich hab' keine Lust meine Pflicht zu erfüllen!
    F               Eb
Für dich nicht, für mich nicht,
    Ab   G     F
Ich hab' keine Pflicht! 

BRIDGE
   C
Marlene hatte andere Pläne
  G
Simone Beauvoir sagt: "Gott bewahr!"
    C
Und vor dem ersten Kinderschreien
G
Muss ich mich erstmal selbst befreien
    Bb
Und augenblicklich fühl' ich mich
C               D
Unbeschreiblich weiblich - WEIBLICH

MAIN GUITAR RIFF 
Am   \ 4x
F    /

KEYBOARD SOLO
Am   \ 4x
F    /

MAIN GUITAR RIFF
Am   \ 4x
F    /

CHORUS
C               Eb               Bb       
 Warum soll ich meine Pflicht als Frau erfüllen?
    F        C        F         C
Für wen? Für die? Für dich? Für mich?
    C          Bb         F
Ich hab' keine Lust meine Pflicht zu erfüllen!
    F               Eb
Für dich nicht, für mich nicht,
    Ab   G     F
Ich hab' keine Pflicht! 

BRIDGE
   C
Marlene hatte andere Pläne
  G
Simone Beauvoir sagt: "Gott bewahr!"
    C
Und vor dem ersten Kinderschreien
G
Muss ich mich erstmal selbst befreien
    Bb
Und augenblicklich fühl' ich mich
C               D
Unbeschreiblich weiblich - WEIBLICH
Добавлено: 07.08.2015
Другие материалы по этой песне:
  • Аккорды и текст

Страница создана 21.02.2012
http://primanota.ru/nina-hagen/unbeschreiblich-weiblich-chords.htm
Привет, Гость.
Предлагаем пройти революционный курс по гитаре.
Подарок от PrimaNota.Ru, забирай!