PrimaNota.ru - самый крупный в мире бесплатный архив песенных текстов, аккордов, табулатур и нот


Nils Landgren - Soundcheck - таба, видео

Регистрация Запомнить меня
Войти через:  Facebook Google Twitter Vk Yandex Mail.ru

Nils Landgren - Soundcheck - таба, видео

Печатать
Просмотров: 80
-------------------------------------------------------------------------------
                             Soundcheck - Nils Landgren
-------------------------------------------------------------------------------
Tabbed by:Himpus mc schimpus
E-mail:filipkapotra@gmail.com

Tuning: standard E

e|--------------------------------------6-7---6-7----------------------------|
B|--------------------------------------6-7---6-7----------------------------|
G|--------------------------------------6-7---6-7----------------------------|
D|---------5h6--------------------------6-7---6-7----------------------------|    X4
A|---5-7-5--------5-5-6-7---------------x-x---x-x----------------------------|
E|--------------------------------------x-x---x-x----------------------------|

e|---------------------9----------------6-7---6-7----------------------------|
B|----------------------8---------------6-7---6-7----------------------------|
G|---7h9-7h9-7h9-7h9--------------------6-7---6-7----------------------------|  |
D|--------------------------------------6-7---6-7----------------------------|  V
A|--------------------------------------x-x---x-x----------------------------|
E|--------------------------------------x-x---x-x----------------------------|

e|--------------------------------------6-7---6-7----------------------------|
B|--------------------------------------6-7---6-7----------------------------|
G|---7h9-7h9-7h9----7-------------------6-7---6-7----------------------------|   X2
D|--------------------9-7---------------6-7---6-7----------------------------|  
A|------------------------10------------x-x---x-x----------------------------|
E|--------------------------------------x-x---x-x----------------------------|

e|---------------------------------------------------------------------------|
B|-----8--10--10/12--10/12--10p8-----8---------------------------------------|
G|---9----------------------------9-----9------------------------------------|   X2
D|---------------------------------------------------------------------------|
A|---------------------------------------------------------------------------|
E|---------------------------------------------------------------------------|

Then repeat all

************************************

| /   slide up
| \   slide down
| h   hammer-on
| p   pull-off
| ~   vibrato
| +   harmonic
| x   Mute note
| b   Bend
| pb  Pre-bend
| br  Bend release
| pbr Pre-bend release
| brb Bend release bend

************************************
Добавлено: 15.12.2015
Другие материалы по этой песне:
  • Аккорды и текст

Страница создана 15.12.2015
http://primanota.ru/nils-landgren/soundcheck-chords.htm
Привет, Гость.
Предлагаем пройти революционный курс по гитаре.
Подарок от PrimaNota.Ru, забирай!