PrimaNota.ru - самый крупный в мире бесплатный архив песенных текстов, аккордов, табулатур и нот


Nile - Iii Destruction Of The Temple Of The Enemies Of Ra - таба, видео

Регистрация Запомнить меня
Войти через:  Facebook Google Twitter Vk Yandex Mail.ru

Nile - Iii Destruction Of The Temple Of The Enemies Of Ra - таба, видео

Печатать
Просмотров: 91
Band:  Nile
Album: In Their Darkened Shrines
Song:  III. Destruction Of The Temple Of The Enemies Of Ra



.  - palm mute           /  - slide up to
\  - slide down to       ~  - vibrato
h  - hammer on           b  - Bend
p  - pull off            Suffixes for bend
t  - tap                 f  - full bend    h - half bend
ph - pinched harmonic    q  - quarter bend t - tap bend
*  - see comment         ^  - Hold bend    r release bend
x  - Stuccatto           ~  - vibrato bend
,  - slight palm mute    () - ghost note, sustained note
"  - tremolo note        <> - Trill

Tunning: A E A D F# B


Intro:               ____________  ____________
                                1|            2|
|------------------|-------------|-------------|
|------------------|-------------|-------------|
|-8654-------------|-------------|-------------|
|-----7643-34643---|-0-----------|-0---6-6-6-6-|
|---------6-----65-|-0-----------|-0---6-6-6-6-|
|------------------|-0-----------|-0---6-6-6-6-|


Riff A1:

|--------------|--------------|--------------|-------------|
|--------------|--------------|--------------|-------------|
|--------------|--------------|--------------|-------------|
|--------------|--------------|--------------|-------------|
|-5/6----------|-5/6----------|-5/6----------|-5/6--6/9--6-|
|-----00001133-|-----00001133-|-----00001133-|-------------|
      ........       ........       ........


Riff A2:


|--------------|--------------|--------------|--------------|
|--------------|--------------|--------------|--------------|
|--------------|--------------|--------------|--------------|
|-7/8----------|-7/8----------|-7/8----------|-7/8--8/11--8-|
|-5/6----------|-5/6----------|-5/6----------|-5/6--6/-9--6-|
|-----00001133-|-----00001133-|-----00001133-|--------------|
      ........       ........       ........


Riff B:

|------------------|------------------|------------------|
|------------------|------------------|------------------|
|------------------|------------------|------------------|
|------------------|------------------|------------------|
|------------------|------------------|------------------|
|-3333333355555555-|-6666666655555555-|-3333333333333333-|
|------------------|------------------|------------------|

|------------------|------------------|------------------|
|------------------|------------------|------------------|
|------------------|------------------|------------------|
|------------------|------------------|------------------|
|------------------|------------------|------------------|
|-0000000011111111-|-4444444488888888-|-7777777777777777-|
  ................   ................   ................


Riff C:
                x3
|-----------------|-----------------|-----------------|
|-----------------|-----------------|-----------------|
|-5---4---3---2---|-----------------|---5-------------|
|-5---4---3---2---|-4---------------|---3-------------|
|-3---2---1---0---|-4---------------|-4---------------|
|-----------------|-4---------------|-4---------------|


Riff D:

|------------------|-------------------|----------------------|
|------------------|-------------------|----------------------|
|------------------|-------------------|----------------------|
|-7----------------|------9------------|----------9---8---8\7-|
|-5----------------|------6------------|----------6---5---5---|
|-----000000000000-|-0000--00000000000-|-00000000-------------|
      ............   ....  ...........   ........

|------------------|------------------|
|------------------|------------------|
|------------------|------------------|
|------------------|------------------|
|------------------|--8---7---7\6---6/|
|------------------|--5---4---4-----4/|
|-0000000000000000-|------------------|
  ................


Riff E:             ____________  ____________  _________________
                               1|          2,4|                 3|
|------------------|-------------|-------------|------------------|
|------------------|-------------|-------------|------------------|
|-8754-------------|-------------|-------------|------------------|
|-----7643-34643---|-0-----------|-0---6-6-6-6-|------------------|
|---------6-----65-|-0-----------|-0---6-6-6-6-|------------------|
|------------------|-0-----------|-0---6-6-6-6-|-0011001144441111-|
  ................                               ................


Riff F:

|---------------|-------------|
|---------------|-------------|
|---------------|-------------|
|-0----6----0---|-6-7-7-7-6-3-|
|-0----6----0---|-6-7-7-7-6-3-|
|-0----6----0---|-6-7-7-7-6-3-|


Outro 1:

|------------------|
|------------------|
|------------------|
|-0000000000000000-|
|-0000000000000000-|
|-0000000000000000-|


Outro 2:

|-5555555555555555-|
|-3333333333333333-|
|-2222222222222222-|
|------------------|
|------------------|
|------------------|



Song Structure:

Intro        x3
Riff A1      x2
Riff A2
Riff B       x3
Riff C
Riff D       x2
Riff E
Riff F       x4 (start ritard on the 3rd time)
Outro 1      x8 (gtr. 2 plays Outro 2 over the last 4)


Feel free to make any comments, corrections or suggestions.


END
Добавлено: 06.11.2013
Другие материалы по этой песне:
  • Аккорды и текст

Страница создана 06.11.2013
http://primanota.ru/nile/iii-destruction-of-the-temple-of-the-enemies-of-ra-chords.htm
Привет, Гость.
Предлагаем пройти революционный курс по гитаре.
Подарок от PrimaNota.Ru, забирай!