PrimaNota.ru - самый крупный в мире бесплатный архив песенных текстов, аккордов, табулатур и нот


Nile - I Hall Of Saurian Entombment - таба, видео

Регистрация Запомнить меня
Войти через:  Facebook Google Twitter Vk Yandex Mail.ru

Nile - I Hall Of Saurian Entombment - таба, видео

Печатать
Просмотров: 80
Band:  Nile
Album: In Their Darkened Shrines
Song:  I. Hall Of Saurian Entombment




.  - palm mute           /  - slide up to
\  - slide down to       ~  - vibrato
h  - hammer on           b  - Bend
p  - pull off            Suffixes for bend
t  - tap                 f  - full bend    h - half bend
ph - pinched harmonic    q  - quarter bend t - tap bend
*  - see comment         ^  - Hold bend    r release bend
x  - Stuccatto           ~  - vibrato bend
,  - slight palm mute    () - ghost note, sustained note
"  - tremolo note        <> - Trill

Tunning: A E A D F# B

OK this one hasn't got any guitar in it at all, but I thought I'd
transcribe the arrangement for guitar anyway.  I've tabbed this as
being played with a clean guitar tone and using mostly octaves, but
you could play it with power chords or single notes depending on
what sort of atmosphere you are aiming to create.  As a precursor
to "Invocation To Seditious Heresy" though, I think that an
undistorted version offers a more appropriate lead in.


Riff A1:                   ________________________________________
                                                                  1|
|-------------|------------|-------------|-------------|------------|
|-------------|------------|-------------|-------------|------------|
|-55-5--77-7--|------------|-55-5--77-7--|-88-8--77-7--|------------|
|-------------|------------|-------------|-------------|------------|
|-33-3--55-5--|------------|-33-3--55-5--|-66-6--55-5--|------------|
|-------------|------------|-------------|-------------|------------|

________________________________________________________
                                                        2|
|-------------|----------------|-------------|------------|
|-------------|----------------|-------------|------------|
|-55-5--77-7--|-88-8--1111-11--|-88-8--77-7--|------------|
|-------------|----------------|-------------|------------|
|-33-3--55-5--|-66-6---9-9--9--|-66-6--55-5--|------------|
|-------------|----------------|-------------|------------|


Riff A2:


|-88-8--1010-10--|------------|
|----------------|------------|
|-55-5---7-7--7--|------------|
|----------------|------------|
|----------------|------------|
|----------------|------------|

________________________________________________
                                                1|
|-88-8--1010-10--|-1111-11--1010-10--|------------|
|----------------|-------------------|------------|
|-55-5---7-7--7--|--8-8--8---7-7--7--|------------|
|----------------|-------------------|------------|
|----------------|-------------------|------------|
|----------------|-------------------|------------|

_________________________________________________________________
                                                                 2|
|-88-8--1010-10--|1111-11--1414-14--|1111-11--1010-10--|-----------|
|----------------|------------------|------------------|-----------|
|-55-5---7-7--7--|-8-8--8--1111-11--|-8-8--8---7-7--7--|-----------|
|----------------|------------------|------------------|-----------|
|----------------|------------------|------------------|-----------|
|----------------|------------------|------------------|-----------|


Riff B:

|-8-------|-1111-11--1010-10--|-88-8-------|-6----8---10-|----------|
|---------|-------------------|------------|-------------|----------|
|-5-------|--8-8--8---7-7--7--|-55-5-------|-3----5----7-|----------|
|---------|-------------------|------------|-------------|----------|
|---------|-------------------|------------|-------------|----------|
|---------|-------------------|------------|-------------|----------|


Lead Fill 1:

|----------------|---------------|------------|
|-15-15---13-13--|------------15-|-~~~~~~~~~~-|
|----------------|-15-15---13----|------------|
|----------------|---------------|------------|
|----------------|---------------|------------|
|----------------|---------------|------------|


|----------------|---------------|------------|
|-15-15---13-13--|------------15-|-~~~~~~~~~~-|
|----------------|-15-15---13----|------------|
|----------------|---------------|------------|
|----------------|---------------|------------|
|----------------|---------------|------------|

|-/15~~~~~~~~~~~-|-~~~~~~~~~~~~~-|-/15~~~~~~~~~~~-|-~~~~~~~~~~~~~-|
|----------------|---------------|----------------|---------------|
|----------------|---------------|----------------|---------------|
|----------------|---------------|----------------|---------------|
|----------------|---------------|----------------|---------------|
|----------------|---------------|----------------|---------------|


Riff A3:

|-88-8--1010-10--|-17/18-17--17/18-17--|
|----------------|---------------------|
|-55-5---7-7--7--|-14/15-14--14/15-14--|
|----------------|---------------------|
|----------------|---------------------|
|----------------|---------------------|

_________________________________________________________
                                                         1|
|-88-8--1010-10--|-1111-11--1010-10--|-17/18-17--17/18-17--|
|----------------|-------------------|---------------------|
|-55-5---7-7--7--|--8-8--8---7-7--7--|-14/15-14--14/15-14--|
|----------------|-------------------|---------------------|
|----------------|-------------------|---------------------|
|----------------|-------------------|---------------------|

____________________________________

|-88-8--1010-10--|-1111-11--1414-14--|
|----------------|-------------------|
|-55-5---7-7--7--|--8-8--8--1111-11--|
|----------------|-------------------|
|----------------|-------------------|
|----------------|-------------------|

_________________________________________________________

|-1111-11--1010-10--|-17/18-17--17/18-17--|---------------|
|-------------------|---------------------|---------------|
|--8-8--8---7-7--7--|-14/15-14--14/15-14--|---------------|
|-------------------|---------------------|---------------|
|-------------------|---------------------|---------------|
|-------------------|---------------------|---------------|

____________________________________________________

|-1818-18--1717-17--|-1515-15--------|-13---15---17--|
|-------------------|----------------|---------------|
|-1515-15--1414-14--|-1212-12--------|-10---12---14--|
|-------------------|----------------|---------------|
|-------------------|----------------|---------------|
|-------------------|----------------|---------------|

___________________________________________

|-17/18-17--17/18-17--|-17/18-17--17/18-17--|
|---------------------|---------------------|
|-14/15-14--14/15-14--|-14/15-14--14/15-14--|
|---------------------|---------------------|
|---------------------|---------------------|
|---------------------|---------------------|

_________________________________________________________
                                                         2|
|-17/18-17--17/18-17--|-17/18-17--17/18-17--|--------------|
|---------------------|---------------------|--------------|
|-14/15-14--14/15-14--|-14/15-14--14/15-14--|--------------|
|---------------------|---------------------|--------------|
|---------------------|---------------------|--------------|
|---------------------|---------------------|--------------|



Song Structure:

Riff A1
Riff A2
Riff B
Lead Fill 1

Break

Riff A2
Riff A3


All comments, suggestions and corrections are welcome.


END
Добавлено: 03.09.2013
Другие материалы по этой песне:
  • Аккорды и текст

Страница создана 03.09.2013
http://primanota.ru/nile/i-hall-of-saurian-entombment-chords.htm
Привет, Гость.
Предлагаем пройти революционный курс по гитаре.
Подарок от PrimaNota.Ru, забирай!