PrimaNota.ru - самый крупный в мире бесплатный архив песенных текстов, аккордов, табулатур и нот


Nile - As He Creates So He Destroys - таба, видео

Регистрация Запомнить меня
Войти через:  Facebook Google Twitter Vk Yandex Mail.ru

Nile - As He Creates So He Destroys - таба, видео

Печатать
Просмотров: 76
Band : Nile
Album : Ithyphallic
Song : As He Creates,So He Destroys



Tuning : A E A D F# B
       : Drop A

.    -   palm mute          / - slide up to
\    -   slide down to      ~ - vibrato
h    -   hammer on          b - Bend
p    -   pull off           Suffixes for bend
t    -   tap                f - full bend     h - half bend
ph   -   pinched harmonic   q - quarter bend t - tap bend
*    -   see comment        ^ - Hold bend     r release bend
x    -   Stuccatto          ~ - vibrato bend
,    -   slight palm mute   () - ghost note, sustained note
"    -   tremolo note       <> - Trill


Riff I : Intro Riff 2x (0:00-0:07)

Guitar 1:
           TP..        TP..       TP..
|---------------------------------------------------------|
|---------------------------------------------------------|
|----------1/7---------1/8--------1/10-11-10h11p10\8------|
|---------------------------------------------------------|
|---------------------------------------------------------|
|--1-0-0-0-----1-0-0-0-----1-0-0-0------------------------|

Guitar 2:
           TP..        TP..        TP..
|---------------------------------------------------------|
|---------------------------------------------------------|
|---------------------------------------------------------|
|----------1/7---------1/6--------------------------------|
|----------------------------------1/8-9-8h9p8\6----------|
|--1-0-0-0-----1-0-0-0-----1-0-0-0------------------------|

Riff II : Hammer-on riff (0:08-0:20)

   ph      ph      ph      ph
|---------------------------------------------------------|
|---------------------------------------------------------|
|---------------------------------------------------------|
|--4h5p4p0-1h2p1p0-3h4p3p0-2h3p2p0------------------------|
|---------------------------------------------------------|
|---------------------------------------------------------|
   ph      ph      ph      ph          TP........
 ---------------------------------------------------------|
 ---------------------------------------------------------|
 ---------------------------------------------------------|
 --4h5p4p0-1h2p1p0-3h4p3p0-2h3p2p0------------------------|
 ---------------------------------------------------------|
 ---------------------------------------4-----------------|
  ph      ph      ph      ph
|---------------------------------------------------------|
|---------------------------------------------------------|
|---------------------------------------------------------|
|--4h5p4p0-5h7p5p0-7h8p7p0-5h7p5p0------------------------|
|---------------------------------------------------------|
|---------------------------------------------------------|
   ph      ph      ph      ph          TP........
 ---------------------------------------------------------|
 ---------------------------------------------------------|
 ---------------------------------------------------------|
 --4h5p4p0-5h7p5p0-7h8p7p0-5h7p5p0------------------------|
 ---------------------------------------------------------|
 ---------------------------------------3-----------------|
  ph       ph      ph      ph
|---------------------------------------------------------|
|---------------------------------------------------------|
|---------------------------------------------------------|
|--8h10p8p0-7h8p7p0-5h7p5p0-7h8p7p0-----------------------|
|---------------------------------------------------------|
|---------------------------------------------------------|
   ph        ph      ph      ph        TP........
 ---------------------------------------------------------|
 ---------------------------------------------------------|
 ---------------------------------------------------------|
 --8h10p8p0-7h8p7p0-5h7p5p0-7h8p7p0-----------------------|
 ---------------------------------------------------------|
 ---------------------------------------4-1-4-------------|


Riff III : verse riff A. 2x   (0:20-0:28)

|-----------------------------------------------------------|
|-----------------------------------------------------------|
|-----------------------------------------------------------|
|-----------3-3-3-3---------3-3-3---------------3-3-3-3-----|
|-----------------------------------------------------------|
|--0-0-0-0----------0-0-0-0-------1-1-1-0-0-0-0-------------|

   ph        ph        ph
 -------------------------------------|
 -------------------------------------|
 -------------------------------------|
 --3h4h6p4p3-4h6h7p6p4-3h4h6p4p3------|
 -------------------------------------|
 -------------------------------------|




Riff III : verse riff B. (0:28-0:33)


|-----------------------------------------------------------|
|-----------------------------------------------------------|
|-----------------------------------------------------------|
|-----------3-3-3-3---------3-3-3---------------3-3-3-3-----|
|-----------------------------------------------------------|
|--0-0-0-0----------0-0-0-0-------1-1-1-0-0-0-0-------------|
 -----------------------------------------------------------|
 -----------------------------------------------------------|
 -----------------------------------------------------------|
 -----------3-3-3-3---------3-3-3---------------3-3-3-3-----|
 -----------------------------------------------------------|
 --0-0-0-0----------0-0-0-0-------1-1-1-0-0-0-0-------------|


   ph        ph        ph
 -------------------------------------|
 -------------------------------------|
 -------------------------------------|
 --3h4h6p4p3-4h6h7p6p4-3h4h6p4p3------|
 -------------------------------------|
 -------------------------------------|


Riff IV : Chorus intro (0:34-0:38)

|----------------------------------------------------|
|----------------------------------------------------|
|----------------------------------------------------|
|----------------------------------------------------|
|--6-7-6-4-3-4--6-7-6-4-3-4---6-7-6-4-4-3------------|
|--6-7-6-4-3-4--6-7-6-4-3-4---6-7-6-4-4-3------------|

   TP.....................
 ---------------------------------|
 ---------------------------------|
 ---------------------------------|
 ---------------------------------|
 ---------------------------------|
 --9---6---4---3---1--------------|




Riff V : Chorus Riff (0:38-0:54)

                                      TP.................
|------------------------------------------------------------------------|
|------------------------------------------------------------------------|
|------------------------------------------------------------------------|
|----------3-3-3-3---------3-3-3-----------------------------------------|
|------------------------------------------------------------------------|
|--0-0-0-0---------0-0-0-0-------1----9--6--4--3--1----------------------|

                    ph         ph         ph           TP.................
|------------------------------------------------------------------------|
|------------------------------------------------------------------------|
|------------------------------------------------------------------------|
|----------3-3-3-3--3h4h6p4p3--4h6h7p6p4--3h4h6p4p3----------------------|
|------------------------------------------------------------------------|
|--0-0-0-0---------------------------------------------9--6--4--3--1-----|
                                     TP.................
|------------------------------------------------------------------------|
|------------------------------------------------------------------------|
|------------------------------------------------------------------------|
|----------3-3-3-3---------3-3-3-----------------------------------------|
|------------------------------------------------------------------------|
|--0-0-0-0---------0-0-0-0-------1----9--6--4--3--1----------------------|

|------------------------------------------------------------------------|
|------------------------------------------------------------------------|
|------------------------------------------------------------------------|
|-----------3-3-3-3---------3-3-3---------------3-3-3-3------------------|
|------------------------------------------------------------------------|
|--0-0-0-0----------0-0-0-0-------1-1-1-0-0-0-0--------------------------|

   ph        ph        ph
|------------------------------------------------------------------------|
|------------------------------------------------------------------------|
|------------------------------------------------------------------------|
|--3h4h6p4p3-4h6h7p6p4-3h4h6p4p3-----------------------------------------|
|------------------------------------------------------------------------|
|------------------------------------------------------------------------|




Riff VI : Fast lick (0:54-0:57)

|-------------------------------------------------------------|
|-------------------------------------------------------------|
|--13h14p13p11h13p11-10h11p10---10----------------------------|
|-----------------------------13-----13-12h13p12p10h-12p10----|
|-------------------------------------------------------------|
|-------------------------------------------------------------|

 ---------------------------------------------|
 ---------------------------------------------|
 ---------------------------------------------|
 --9h10p9---9---------------------------------|
 --------12--12-11h12p11p9h11p9-8-8-----------|
 ---------------------------------------------|


Riff VII : Octave Riff (0:57-1:26)

|------------------------------------------------------------------------|
|------------------------------------------------------------------------|
|------------------------------------------------------------------------|
|--3-0-1-0---------3-0-1-0---------3-0-1-0---------3-0-1-0---------------|
|------------------------------------------------------------------------|
|----------3-0-1-0---------3-0-1-0---------3-0-1-0---------3-0-1-0-------|

 ------------------------------------------|
 ------------------------------------------|
 ------------------------------------------|
 --9-6-7-6---------9-6-7-6-----------------|
 ------------------------------------------|
 ----------9-6-7-6---------9-6-7-6---------|
end A.
|---------------------------------------------------------|
|---------------------------------------------------------|
|--14-13-11-10------------11-10-8-7-----------------------|
|--------------13-12-10-9-----------10-9-7-6--------------|
|---------------------------------------------------------|
|---------------------------------------------------------|

end B.
|---------------------------------------------------------|
|--------10-9--------------7-6----------------------------|
|--11-10-----------8-7-8-7--------5-4---------------------|
|-------------10-9-------------7-6------------------------|
|---------------------------------------------------------|
|---------------------------------------------------------|

end C.
|----------------------------------------------------------------------------------|
|----------------------------------------------------------------------------------|
|--14-13-11-10------------11-10-8-7----------8-7-5-4---------5-4-2-1---------------|
|--------------13-12-10-9-----------10-9-7-6---------7-6-4-3---------4-3-1-0-------|
|----------------------------------------------------------------------------------|
|----------------------------------------------------------------------------------|

(3x)
   ph       ph       ph       ph
 ------------------------------------------|
 ------------------------------------------|
 ------------------------------------------|
 --7p6-4-3--6p5-3-2--5p4-2-1--4p3-1-0------|
 ------------------------------------------|
 ------------------------------------------|



Riff VIII   2x (1:26-1:40)

(3x)
|---------------------------------------------------------------------------------|
|---------------------------------------------------------------------------------|
|---------------------------------------------------------------------------------|
|--7-7-7-4-4-4----------13--------------------------------------------------------|
|--------------4-4-4----10--4-4-4-4-----------------------------------------------|
|--------------------4/-10--4-4-4-4-----------------------------------------------|
(1x)
|---------------------------------------------------------------------------------|
|---------------------------------------------------------------------------------|
|---------------------------------------------------------------------------------|
|--13-------------13--------------------------------------------------------------|
|--10---4-4-4-4---10---4-4-4-4----------------------------------------------------|
|--10---4-4-4-4---10---4-4-4-4----------------------------------------------------|



(REPEAT RIFF II : Hammer on Riff (1:41-1:52))
Riff IX   2x (1:52-2:14)

                                      TP...
|--------------------------------------------------------------------------------|
|--------------------------------------------------------------------------------|
|--------------------------------------------------------------------------------|
|--------------------------------------------------------------------------------|
|--------------------------------------------------------------------------------|
|--4-5-4-0-1-2-1-0-3-4-3-0-2-3-2-0----4----7p4h5p4--7p4h5p4----------------------|

                                      TP...
|--------------------------------------------------------------------------------|
|--------------------------------------------------------------------------------|
|--------------------------------------------------------------------------------|
|--------------------------------------------------------------------------------|
|--------------------------------------------------------------------------------|
|--4-5-4-0-5-7-5-0-7-8-7-0-5-7-5-0----3------------------------------------------|

                                      TP...
|--------------------------------------------------------------------------------|
|--------------------------------------------------------------------------------|
|--------------------------------------------------------------------------------|
|--------------------------------------------------------------------------------|
|--------------------------------------------------------------------------------|
|--8-10-8-0-7-8-7-0-5-7-5-0-7-8-7-0---4----7p4h5p4--7p4h5p4-7p4h5p4--------------|


Riff X : Bridge Intro (2:14-2:17)


   ph      ph      ph      ph      ph      ph      ph      ph
|--------------------------------------------------------------------------------|
|--------------------------------------------------------------------------------|
|--------------------------------------------------------------------------------|
|--4h5p4p0-1h2p1p0-3h4p3p0-2h3p2p0-4h5p4p0-1h2p1p0-3h4p3p0-2h3p2p0---------------|
|--------------------------------------------------------------------------------|
|--------------------------------------------------------------------------------|

 -----------------------------------|
 -----------------------------------|
 -----------------------------------|
 -----------------------------------|
 --1-0-0--/-7-----------------------|
 --1-0-0-/--7-----------------------|



Riff XI : Bridge Riff   2x   (2:17-2:44)

                     TP...                         TP...
|--------------------------------------------------------------|
|--------------------------------------------------------------|
|--------9-9-9-------8-----------------9-9-9-------8-----------|
|--------------9-9-9-------------------------9-9-9-------------|
|--------------------------------------------------------------|
|--6-6-6-------------------7-7-7-6-6-6-------------------------|
                           TP...                        TP...
 --------------------------------------------------------------|
 --------------------------------------------------------------|
 --------------8-8-8-------7----------------8-8-8-------7------|
 --------------------9-9-9------------------------9-9-9--------|
 --------------------------------------------------------------|
 --1-1-1-0-0-0------------------1-1-1-0-0-0--------------------|

                           TP...                        TP...
 --------------------------------------------------------------|
 --------------------------------------------------------------|
 --------------9-9-9-------8----------------9-9-9-------8------|
 --------------------9-9-9------------------------9-9-9--------|
 --------------------------------------------------------------|
 --7-7-7-6-6-6------------------7-7-7-6-6-6--------------------|

           TP..        TP..       TP..
|--------------------------------------------------------------|
|--------------------------------------------------------------|
|----------1/7---------1/8--------1/10-11-10h11p10\8-----------|
|--------------------------------------------------------------|
|--------------------------------------------------------------|
|--1-0-0-0-----1-0-0-0-----1-0-0-0-----------------------------|



          TP..        TP..       TP..
|--------------------------------------------------------------|
|--------------------------------------------------------------|
|----------1/7---------1/8--------1/10-11-10h11p10\8-----------|
|--------------------------------------------------------------|
|--------------------------------------------------------------|
|--1-0-0-0-----1-0-0-0-----1-0-0-0-----------------------------|

|--------------------------------------------------------------|
|--------------------------------------------------------------|
|--------------------------------------------------------------|
|----------------7---------------------------------------------|
|--4-4-4-4-4-4---4---------------------------------------------|
|--4-4-4-4-4-4---4---------------------------------------------|



Riff XII : Tempo Change (2:44-2:57)

|--------------------------------------------------------------------------------|
|--------------------------------------------------------------------------------|
|--------------------------------------------------------------------------------|
|--------7p4p0-8p5p0-10p7p0-8p5p0-10p7p0-8p5p0-----------------------------------|
|--------------------------------------------------------------------------------|
|--7p4p0-------------------------------------------------------------------------|

                  TP.................
|--------------------------------------------------------------------------------|
|--------------------------------------------------------------------------------|
|--------------------------------------------------------------------------------|
|--7---------7-------------------------7---------7-------------------------------|
|--4--4-4-4--4-------------------------4--4-4-4--4-------------------------------|
|--4--4-4-4--4----4-4-3-3-1-1-0--7-----4--4-4-4--4-------------------------------|
|--------------------------------------------------------------------------------|
|--------------------------------------------------------------------------------|
|--------------------------------------------------------------------------------|
|--7p4p0-8p5p0-10p7p0-8p5p0-10p7p0-8p5p0-----------------------------------------|
|--------------------------------------------------------------------------------|
|--------------------------------------------------------------------------------|

                  TP.................
|--------------------------------------------------------------------------------|
|--------------------------------------------------------------------------------|
|--------------------------------------------------------------------------------|
|--7---------7-------------------------------------------------------------------|
|--4--4-4-4--4-------------------------------------------------------------------|
|--4--4-4-4--4----4--3--1--0---7-------------------------------------------------|


Riff XIII   2x   (2:57-3:18)

|--------------------------------------------------------------------------------|
|--------------------------------------------------------------------------------|
|--------------------------------------------------------------------------------|
|--------------------------------------------------------------------------------|
|--------------------------------------------------------------------------------|
|--7p4/5h8p5\4h7p4/5h8p5\4--7p4/5h8p5\4h7p4/5h8p5\4------------------------------|

   TP........................
|--------------------------------------------------------------------------------|
|--------------------------------------------------------------------------------|
|--------------------------------------------------------------------------------|
|--------------------------------------------------------------------------------|
|--------------------------------------------------------------------------------|
|--4--3--1--0---3----------------------------------------------------------------|

|--------------------------------------------------------------------------------|
|--------------------------------------------------------------------------------|
|--------------------------------------------------------------------------------|
|--------------------------------------------------------------------------------|
|--------------------------------------------------------------------------------|
|--8p5\4h7p4/5h8p5\4h7p4/5--8p5\4h7p4/5h8p5\4h7p4/5------------------------------|

   TP.....................
|--------------------------------------------------------------------------------|
|--------------------------------------------------------------------------------|
|--------------------------------------------------------------------------------|
|--------------------------------------------------------------------------------|
|--------------------------------------------------------------------------------|
|--4--3--1--0---7----------------------------------------------------------------|


Riff XIV 2x (3:18-3:40)

(3x)
|--------------------------------------------------------------------------------|
|--------------------------------------------------------------------------------|
|--------------------------------------------------------------------------------|
|--7-7-7-4-4-4--------------5----------------------------------------------------|
|--------------4-4-4--------3---4-4-4-4------------------------------------------|
|--------------------4-4-4------4-4-4-4------------------------------------------|
(1x)
|--------------------------------------------------------------------------------|
|--------------------------------------------------------------------------------|
|--------------------------------------------------------------------------------|
|--13-------------13-------------------------------------------------------------|
|--10---4-4-4-4---10---4-4-4-4---------------------------------------------------|
|--10---4-4-4-4---10---4-4-4-4---------------------------------------------------|



(REPEAT Riff XIII 4x) (3:40-4:22)



Riff XV : ENDING RIFF (4:22-4:37)

|--------------------------------------------------------------------------------|
|--------------------------------------------------------------------------------|
|--------------------------------------------------------------------------------|
|---------6-------5--------------------------------------------------------------|
|--7--4---4---4---3--------------------------------------------------------------|
|--7--4---6---4---5--------------------------------------------------------------|
Добавлено: 04.07.2013
Другие материалы по этой песне:

Страница создана 19.03.2012
http://primanota.ru/nile/as-he-creates-so-he-destroys-chords.htm
Привет, Гость.
Предлагаем пройти революционный курс по гитаре.
Подарок от PrimaNota.Ru, забирай!