PrimaNota.ru - самый крупный в мире бесплатный архив песенных текстов, аккордов, табулатур и нот


Nikolag Egelund - Arrival Manor House - таба, видео

Регистрация Запомнить меня
Войти через:  Facebook Google Twitter Vk Yandex Mail.ru

Nikolag Egelund - Arrival Manor House - таба, видео

Печатать
Просмотров: 24
-------------------------------------------------------------------------------
                             Arrival Manor House - Nikolag Egelund
-------------------------------------------------------------------------------
Tabbed by: Chris Esp
E-mail: greekgamer17@yahoo.gr

Tuning: Standard E

Intro: 0:00-0:34

e|---------10----------10---------10----------------------------------|   |
B|------------------------------------------13---------11--------10---|   |
G|------12----------12---------12--------12---------12--------12------|   |
D|---12----------13---------12--------13---------12--------12---------|   |                   x1 INTRO
A|--------------------------------------------------------------------|   |
E|--------------------------------------------------------------------|   |

Main: 0:35-2:35

e|-----------------------------------------------------------|            |
B|-----------10-------11-------10-----------------10---------|            |
G|--------12----12-------12-------12-----------12----12------|            |
D|-----12----------12-------12-------12-----13----------13---|   x2       |
A|--10-----------------------------------10------------------|            |
E|-----------------------------------------------------------|            |
                                                                          |
e|----------------------------------------|                               |
B|-----------10-------11-------10---------|                               |
G|--------12----12-------12-------12------|                               |
D|-----12----------12-------12-------12---|                               |
A|--10------------------------------------|                               |
E|----------------------------------------|                               |
                                                                          |
e|--------------------------------------------------------|               |
B|--------10-----------10-----------10-----------10-------|               |
G|------7----7-------7----7-------7----7-------7----7-----|               |
D|----7--------7---7--------7---7--------7---7--------7---|               |           
A|--9------------9------------8------------8--------------|               |
E|--------------------------------------------------------|               |
                                                                          |              
e|----------------------------------------------------|                   |
B|--------8-----------8-----------8-----------8-------|                   |
G|------5---5-------5---5-------5---5-------5---5-----|                   |                    x3 MAIN
D|----5-------5---5-------5---5-------5---5-------5---|                   |                     
A|--7-----------7-----------6-----------6-------------|                   |
E|----------------------------------------------------|                   |
                                                                          |
      there are two ways to play the ending of Main part:                 |
                                                                          |
1st way                                                                   | 
                                                                          |
e|--------3-----------3-----------2-------|                               |
B|----------------------------------------|                               |
G|------5---5-------5---5-------5---5-----|                               |
D|----4-------4---4-------4---4-------4---|                               |
A|--5-----------5-----------5-------------|                               |
E|----------------------------------------|                               |
                                                                          |
2nd way                                                                   |
                                                                          |
e|----------------------------------------------------|                   |
B|----------------------------------------------------|                   |
G|----------12--------------12--------------11--------|                   |
D|-------10----10--------10----10--------10----10-----|                   |
A|-----9----------9----9----------9----9----------9---|                   |
E|--10--------------10--------------10----------------|                   |
         
Outro: 2:36-3:00 
                                                                 
e|-----------------------------------------------------------|            |
B|-----------10-------11-------10-----------------10---------|            |
G|--------12----12-------12-------12-----------12----12------|            |
D|-----12----------12-------12-------12-----13----------13---|   x2       |
A|--10-----------------------------------10------------------|            |
E|-----------------------------------------------------------|            |
                                                                          |                     x1 OUTRO
e|--------------------------------------------|                           |
B|-----------10-------11-------10-------------|                           |
G|--------12----12-------12-------12----(12)--|         add the (12)      |
D|-----12----------12-------12-------12-------|    x2   the second        |
A|--10----------------------------------------|            time           |  
E|--------------------------------------------|                           |


Song Composition:
1) Intro: x1 (0:00-0:34)  
2) Main:  x3 (0:35-2:35)
3) Outro: x1 (2:36-3:00)

PLEASE RATE! 


************************************
Добавлено: 15.12.2015
Другие материалы по этой песне:
  • Аккорды и текст

Страница создана 15.12.2015
http://primanota.ru/nikolag-egelund/arrival-manor-house-chords.htm
Привет, Гость.
Предлагаем пройти революционный курс по гитаре.
Подарок от PrimaNota.Ru, забирай!