PrimaNota.ru - самый крупный в мире бесплатный архив песенных текстов, аккордов, табулатур и нот


Nik Kershaw - Human Racing - текст песни, таба, бас-таба, видео

Регистрация Запомнить меня
Войти через:  Facebook Google Twitter Vk Yandex Mail.ru

Nik Kershaw - Human Racing - текст песни, таба, бас-таба, видео

Печатать
Просмотров: 149
Авторы музыки: Nik Kershaw
Авторы текста: Nik Kershaw
                                 Human Racing                                   


                                                                     Nik Kershaw
Guitar



                                     Q    E  E  E  Q.      
E||-------|-------|-------|-------|-----------------------|
B||-------|-------|-------|-------|--0----1--3--L--3------|
G||-------|-------|-------|-------|--0----2--4--L--4------|
D||-------|-------|-------|-------|--2--------------------|
A||-------|-------|-------|-------|-----------------------|
E||-------|-------|-------|-------|-----------------------|


  Q    Q    H           Q    E  E  E  Q.        Q    Q    H         
---------------------|-----------------------|---------------------|
--0----1----3--------|--0----1--3--L--3------|--0----3----2--------|
--0----2----4--------|--0----2--4--L--4------|--0----4----2--------|
--2------------------|--2--------------------|--2------------------|
---------------------|-----------------------|---------------------|
---------------------|-----------------------|---------------------|


  Q    E  E  E  Q.        Q    Q     H           Q    E  E  E  Q.      
-----------------------|--7----8----10--------|-----------------------|
--0----1--3--L--3------|--0----1-----3--------|--0----1--3--L--3------|
--0----2--4--L--4------|--0----2-----4--------|--0----2--4--L--4------|
--2--------------------|--2-------------------|--2--------------------|
-----------------------|----------------------|-----------------------|
-----------------------|----------------------|-----------------------|


                          clo- sing in    on   em         pty spa    ces     
  Q    Q    E  E  Q       Q    E    E  E  Q    E     Q    E   E   E  Q.      
-----------------------|--2----2----0--L----------|-------------------------|
--0----3----2--3--5----|--3---------2--L--2----0--|--L--------0---L--1------|
--0----4----2--L--L----|--2---------2--L-------0--|--L----2---2---L---------|
--2--------------------|-----------------------0--|--L--------2---L---------|
-----------------------|--------------------------|-------------------------|
-----------------------|--------------------------|-------------------------|


  win ners laugh    too  soon                     a   
  E   Q    E     E  Q    E       Q.     E  Q.     E   
------1----------L------------|----------------------|
--3--------5-----L--3----1----|--L------2--L------1--|
--3--------3-----L-------2----|--L------2--L------2--|
-----------5-----L-------3----|--L------3--L---------|
------------------------------|----------------------|
------------------------------|----------------------|


  paper world         with pa         per fa    ces  be  
  Q     E     E  Q    E    E     Q    E   E  E  Q    E   
------------------------------|-------------------------|
--3-----3-----1--L------------|-------------------------|
--3-------------------2----0--|--L--------0--L--2----0--|
--3-----------3--L---------0--|--L----2---2--L----------|
---------------------------2--|--L--------4--L----------|
------------------------------|-------------------------|


  neath a  pa          per         moon                                        
  Q     E  E   E  Q    E      Q    E    E  Q.     E     Q    E  E  E  Q    E   
---------------------------|-------------------------|--2----2--0--L----------|
---------------------------|-------------------------|--3-------2--L--2----0--|
---------------------------|----------------------2--|--2-------2--L-------0--|
--3-----2--3---L--3----3---|--L----3----5--L---------|---------------------0--|
--5--------5---L--3----3---|--L---------4--L---------|------------------------|
--6--------6---L--6----5---|--L---------5--L---------|------------------------|


  Q    E  E  E  Q.        E  Q    E  E  Q    E     Q.     E  Q.     E   
-----------------------|-----1-------L----------|----------------------|
--L-------0--L--1------|--3-------5--L--3----1--|--L------2--L------1--|
--L----2--2--L---------|--3-------3--L-------2--|--L------2--L------2--|
--L-------2--L---------|----------5----------3--|--L------3--L---------|
-----------------------|------------------------|----------------------|
-----------------------|------------------------|----------------------|


  Q    E  E  Q    E  E     Q    E  E  E  Q    E     Q    E  E   E  Q    E   
------------------------|------------------------|-------------------------|
--3----3--1--L----------|------------------------|-------------------------|
--3---------------2--0--|--L-------0--L--2----0--|-------------------------|
--3-------3--L-------0--|--L----2--2--L----------|--3----2--3---L--3----3--|
---------------------2--|--L-------4--L----------|--5-------5---L--3----3--|
------------------------|------------------------|--6-------6---L--6----5--|


  Q    E  E  Q.     E     Q    E  E  E  Q    E     Q    E  E  E  Q.      
-----------------------|--2----2--0--L----------|-----------------------|
-----------------------|--3-------2--L--2----0--|--L-------0--L--1------|
--------------------2--|--2-------2--L-------0--|--L----2--2--L---------|
--L----3--5--L---------|---------------------0--|--L-------2--L---------|
--L-------4--L---------|------------------------|-----------------------|
--L-------5--L---------|------------------------|-----------------------|


  E  Q    E  E  Q    E     Q.     E  Q.     E     Q    E  E  Q    E  E   
-----1----0--L----------|----------------------|------------------------|
--3-------0--L--3----1--|--L------2--L------1--|--3----3--1--L----------|
--3-------0--L-------2--|--L------2--L------2--|--3---------------2--0--|
---------------------3--|--L------3--L---------|--3-------3--L-------0--|
------------------------|----------------------|---------------------2--|
------------------------|----------------------|------------------------|


  Q    E  E  E  Q    E     Q    E  E   E  Q    E     H        Q.     E   
------------------------|-------------------------|---------------------|
------------------------|-------------------------|---------------------|
--L-------0--L--2----0--|-------------------------|------------------1--|
--L----2--2--L----------|--3----2--3---L--3----3--|--L--------3---------|
--L-------4--L----------|--5-------5---L--3----3--|--L--------4---------|
------------------------|--6-------6---L--6----5--|--L--------4---------|


  Q    E  E  E  E  E  E     Q    E  E  E  Q    E     E  Q.     Q    Q     
-------------------------|------------------------|----------------------|
--4----4--4--L--4-----1--|--L----1--1--L--1-------|----------------------|
--5-------3--L--------1--|--L-------0--L-------1--|--L--1-----------0----|
--6-------5--L--------3--|--L-------1--L-------3--|--L---------3----1----|
-------------------------|---------------------4--|--L---------4---------|
-------------------------|------------------------|----------------------|


  Q    E  E  E  E  E  E     E  Q    Q    Q    E     E  Q.     E  Q    E   
--1----1--1--L--1-----1--|--L--------------------|-----------------------|
--3-------1--L--------2--|--L--4----4------------|-----1---------1----2--|
--3-------2--L--------1--|--L-------5----1----1--|--L---------3----------|
-------------------------|----------6---------3--|--L---------4----------|
-------------------------|-----------------------|-----------------------|
-------------------------|-----------------------|-----------------------|


  E  H.           E     E  Q    E  E  Q    E     Q    E  E  E  Q.      
---------------------|------------------------|-----------------------|
--L------------------|-----1----1--L--1----0--|--0----1--3--L--3------|
-----3---------------|--3------------------0--|--0----2--4--L--4------|
---------------------|--3-------3--L--0----2--|--2--------------------|
------------------1--|--4-------5--L--8-------|-----------------------|
---------------------|------------------------|-----------------------|


  Q    Q    H           Q    E  E  E  Q.        Q    Q    H         
---------------------|-----------------------|---------------------|
--0----1----3--------|--0----1--3--L--3------|--0----3----2--------|
--0----2----4--------|--0----2--4--L--4------|--0----4----2--------|
--2------------------|--2--------------------|--2------------------|
---------------------|-----------------------|---------------------|
---------------------|-----------------------|---------------------|


  Q    E  E  E  Q.        Q    Q     H           Q    E  E  E  Q.      
-----------------------|--7----8----10--------|-----------------------|
--0----1--3--L--3------|--0----1-----3--------|--0----1--3--L--3------|
--0----2--4--L--4------|--0----2-----4--------|--0----2--4--L--4------|
--2--------------------|--2-------------------|--2--------------------|
-----------------------|----------------------|-----------------------|
-----------------------|----------------------|-----------------------|


  Q    Q    E  E  Q       Q    E  E  E  Q    E     Q    E  E  E  Q.      
-----------------------|--2----2--0--L----------|-----------------------|
--0----3----2--3--5----|--3-------2--L--2----0--|--L-------0--L--1------|
--0----4----2--L--L----|--2-------2--L-------0--|--L----2--2--L---------|
--2--------------------|---------------------0--|--L-------2--L---------|
-----------------------|------------------------|-----------------------|
-----------------------|------------------------|-----------------------|


  E  Q    E  E  Q    E     Q.     E  Q.     E     Q    E  E  Q    E  E   
-----1-------L----------|----------------------|------------------------|
--3-------5--L--3----1--|--L------2--L------1--|--3----3--1--L----------|
--3-------3--L-------2--|--L------2--L------2--|--3---------------2--0--|
----------5--L-------3--|--L------3--L---------|--3-------3--L-------0--|
------------------------|----------------------|---------------------2--|
------------------------|----------------------|------------------------|


  Q    E  E  E  Q    E     Q    E  E   E  Q    E     H        Q.     E   
------------------------|-------------------------|---------------------|
------------------------|-------------------------|---------------------|
--L-------0--L--2----0--|-------------------------|------------------1--|
--L----2--2--L----------|--3----2--3---L--3----3--|--L--------3---------|
--L-------4--L----------|--5-------5---L--3----3--|--L--------4---------|
------------------------|--6-------6---L--6----5--|--L--------4---------|


  Q    E  E  E  E  E  E     Q    E  E  E  Q    E     E  Q.     Q    Q     
-------------------------|------------------------|----------------------|
--4----4--4--L--4-----1--|--L----1--1--L--1-------|----------------------|
--5-------3--L--------1--|--L-------0--L-------1--|--L--1-----------0----|
--6-------5--L--------3--|--L-------1--L-------3--|--L---------3----1----|
-------------------------|---------------------4--|--L---------4---------|
-------------------------|------------------------|----------------------|


  Q    E  E  E  E  E  E     E  Q    Q    Q    E     E  Q.     E  Q    E   
--1----1--1--L--1-----1--|--L--------------------|-----------------------|
--3-------1--L--------2--|--L--4----4------------|-----1---------1----2--|
--3-------2--L--------1--|--L-------5----1----1--|--L---------3----------|
-------------------------|----------6---------3--|--L---------4----------|
-------------------------|-----------------------|-----------------------|
-------------------------|-----------------------|-----------------------|


  E  Q.     Q    E  E     E  Q    E  E  Q    E     Q    E  E  E  Q.      
-----------------------|------------------------|-----------------------|
--L--------------------|-----1----1--L--1----0--|--0----1--3--L--3------|
-----3-----------------|--3-------3-----3----0--|--0----2--4--L--4------|
-----------------------|--3-------3--L--3----2--|--2--------------------|
--------------------1--|--4----------L----------|-----------------------|
-----------------------|------------------------|-----------------------|


  Q    Q    H           Q    E  E  E  Q.        Q    Q    H         
---------------------|-----------------------|---------------------|
--0----1----3--------|--0----1--3--L--3------|--0----3----2--------|
--0----2----4--------|--0----2--4--L--4------|--0----4----2--------|
--2------------------|--2--------------------|--2------------------|
---------------------|-----------------------|---------------------|
---------------------|-----------------------|---------------------|


  Q    E  E  E  Q.        Q    Q     H           Q    E  E  E  Q.      
-----------------------|--7----8----10--------|-----------------------|
--0----1--3--L--3------|--0----1-----3--------|--0----1--3--L--3------|
--0----2--4--L--4------|--0----2-----4--------|--0----2--4--L--4------|
--2--------------------|--2-------------------|--2--------------------|
-----------------------|----------------------|-----------------------|
-----------------------|----------------------|-----------------------|


  Q    Q    E  E  Q       Q    E  E  E  Q    E     Q    E  E  E  Q.      
-----------------------|--2----2--0--L----------|-----------------------|
--0----3----2--3--5----|--3-------2--L--2----0--|--L-------0--L--1------|
--0----4----2--L--L----|--2-------2--L-------0--|--L----2--2--L---------|
--2--------------------|---------------------0--|--L-------2--L---------|
-----------------------|------------------------|-----------------------|
-----------------------|------------------------|-----------------------|


  E  Q    E  E  Q    E     Q    E  Q    Q    E     Q    E  E  Q    E  E   
-----1-------L----------|-----------------------|------------------------|
--3-------5--L--3----1--|--L----2--L----1-------|--3----3--1--L----------|
--3-------3--L-------2--|--L----2--L----2-------|--3---------------2--0--|
----------5--L-------3--|--L----3--L---------3--|--3-------3--L-------0--|
------------------------|-----------------------|---------------------2--|
------------------------|-----------------------|------------------------|


  Q    E  E  E  Q    E     Q    E  E   E  Q    E     H        Q.     E   
------------------------|-------------------------|---------------------|
------------------------|-------------------------|---------------------|
--L-------0--L--2----0--|-------------------------|------------------1--|
--L----2--2--L----------|--3----2--3---L--3----3--|--L--------3---------|
--L-------4--L----------|--5-------5---L--3----3--|--L--------4---------|
------------------------|--6-------6---L--6----5--|--L--------4---------|


  Q    E  E  E  E  E  E     Q    E  E  E  Q    E     E  Q.     Q    Q     
-------------------------|------------------------|----------------------|
--4----4--4--L--4-----1--|--L----1--1--L--1-------|----------------------|
--5-------3--L--------1--|--L-------0--L-------1--|--L--1-----------0----|
--6-------5--L--------3--|--L-------1--L-------3--|--L---------3----1----|
-------------------------|---------------------4--|--L---------4---------|
-------------------------|------------------------|----------------------|


  Q    E  E  E  E  E  E     E  Q    Q    Q    E     E  Q.     E  Q    E   
--1----1--1--L--1-----1--|--L--------------------|-----------------------|
--3-------1--L--------2--|--L--4----4------------|-----1---------1----2--|
--3-------2--L--------1--|--L-------5----1----1--|--L---------3----------|
-------------------------|----------6---------3--|--L---------4----------|
-------------------------|-----------------------|-----------------------|
-------------------------|-----------------------|-----------------------|


  E  Q.     Q    E  E     E  Q    E  E  Q    E     Q    E  E  E  Q.      
-----------------------|------------------------|-----------------------|
--L--------------------|-----1----1--L--1----0--|--0----1--3--L--3------|
-----3-----------------|--3-------3-----3----0--|--0----2--4--L--4------|
-----------------------|--3-------3--L--3----2--|--2--------------------|
--------------------1--|--4-------5--L----------|-----------------------|
-----------------------|------------------------|-----------------------|


  Q    Q    H           Q    E  E  E  Q.        Q    Q    H         
---------------------|-----------------------|---------------------|
--0----1----3--------|--0----1--3--L--3------|--0----3----2--------|
--0----2----4--------|--0----2--4--L--4------|--0----4----2--------|
--2------------------|--2--------------------|--2------------------|
---------------------|-----------------------|---------------------|
---------------------|-----------------------|---------------------|


  Q    E  E  E  Q.        Q    Q     H           Q    E  E  E  Q.      
-----------------------|--7----8----10--------|-----------------------|
--0----1--3--L--3------|--0----1-----3--------|--0----1--3--L--3------|
--0----2--4--L--4------|--0----2-----4--------|--0----2--4--L--4------|
--2--------------------|--2-------------------|--2--------------------|
-----------------------|----------------------|-----------------------|
-----------------------|----------------------|-----------------------|


  Q    Q    H           Q    E  E  E  Q.        Q    Q     H         
---------------------|-----------------------|--7----8----10--------|
--0----3----2--------|--0----1--3--L--3------|--0----1-----3--------|
--0----4----2--------|--0----2--4--L--4------|--0----2-----4--------|
--2------------------|--2--------------------|--2-------------------|
---------------------|-----------------------|----------------------|
---------------------|-----------------------|----------------------|


  Q    E  E  E  Q.        Q    Q    H           W                 
-----------------------|---------------------|-------------------|
--0----1--0--L--3------|--0----3----2--------|--L----------------|
--0----2--7--L--4------|--0----4----2--------|--L----------------|
--2--------------------|--2------------------|-------------------|
-----------------------|---------------------|-------------------|
-----------------------|---------------------|-------------------|


-------------------|-------------------|-------------------|-------------------|
-------------------|-------------------|-------------------|-------------------|
-------------------|-------------------|-------------------|-------------------|
-------------------|-------------------|-------------------|-------------------|
-------------------|-------------------|-------------------|-------------------|
-------------------|-------------------|-------------------|-------------------|


-------------------||
-------------------||
-------------------||
-------------------||
-------------------||
-------------------||




Duration Legend
---------------
W - whole
H - half
Q - quarter
E - 8th
S - 16th
T - 32nd
X - 64th
. - note dotted
|-n-|  - n-tuplets


Tablature Legend
----------------
L - tied note
x - dead note
g - grace note
(n) - ghost note
> - accentuded note
NH - natural harmonic
AH - artificial harmonic
TH - tapped harmonic
SH - semi harmonic
PH - pitch harmonic
h - hammer on
p - pull off
b - bend
br - bendRelease
pb - preBend
pbr - preBendRelease
brb - bendReleaseBend
\n/ - tremolo bar dip
\n - tremolo bar dive
-/n - tremolo bar Release up
/n\ - tremolo bar inverted dip
/n - tremolo bar return
-\n - tremolo bar Release down
S - shift slide
s - legato slide
/ -  slide into from below or out of upwards
\ -  slide into from above or out of downwards
~ - vibrato
W - wide vibrato
tr - trill
TP - tremolo picking
T - tapping
S - slap
P - pop
< - fade in
^ - brush up
v - brush down
Добавлено: 06.07.2012
Другие материалы по этой песне:

Страница создана 27.02.2012
http://primanota.ru/nik-kershaw/human-racing-chords.htm
Привет, Гость.
Предлагаем пройти революционный курс по гитаре.
Подарок от PrimaNota.Ru, забирай!