PrimaNota.ru - самый крупный в мире бесплатный архив песенных текстов, аккордов, табулатур и нот


Nihilist - Metal And Mayhem - таба, видео

Регистрация Запомнить меня
Войти через:  Facebook Google Twitter Vk Yandex Mail.ru

Nihilist - Metal And Mayhem - таба, видео

Печатать
Просмотров: 300
Hey!
This is the tab for the awesome song Metal and Mayhem by Nihilist of the Blood Portraits album!
This song has been requested a lot so I started tabbing it.
This is my first tab, so my apologies for mistakes, didn't do the solo and after that
Added some lyrics between brackets so it's easier to follow.

I usually play this tuned down one half step
                                                    


                  Intro
e]------------------------------------------------------------------------|
B]------------------------------------------------------------------------|
G]------------------------------------------------------------------------|
D]-----------------------------------------------------------------9--9---|
A]---10--------10---------10---------10----------9---------9---------9--9-|
E]--------12---------12---------12---------12---------10-------10---------|x3
slightly muted

e]---------------------------------------------------------|
B]---------------------------------------------------------|
G]---------------------------------------------------------|
D]---------------------------------------------------------|
A]10----10-----10----10-----9----9-------------------------|
E]----8-----8-----8-----8------7----7------8-7----3-2------|x1
slightly muted


e]------------------------------------------------------------------------|
B]------------------------------------------------------------------------|
G]------------------------------------------------------------------------|
D]-----------------------------------------------------------------9--9---|
A]---10--------10---------10---------10----------9---------9---------9--9-|
E]--------12---------12---------12---------12---------10-------10---------|x3
slightly muted

e]-------------------------------------------------------------|
B]-------------------------------------------------------------|
G]-------------------------------------------------------------|
D]-------------------------------------------------------------|
A]10-----10----10-----10----9------9-----------------------2---|
E]----8-----8-----8------8------7-----7-----8-7-------3-2--0---|x1
slightly muted                                             ring

_______________________________________
(Ladies and gentlemen, fucking Nihilist!)

  ___                               Verse
 /e]----------------------------------------------------------------|
| B]----------------------------------------------------------------|
| G]----------------------------------------------------------------|
| D]--------------------------------------------------5-------------|
| A]--2------------------------------------------2----3-------------|
| E]--0---0000000000000000000000000000000000000--0-0----------------|
|
|
|e]-----------------------------------------------------------------|
|B]-----------------------------------------------------------------|
|G]-----------------------------------------------------------------|
|D]-----------------------------------------------------------------|
|A]--2-------------------------------------------9---8---7----6-5---|
|E]--0---0000000000000000000000000000000000000---7---6---5----4-3---|
\___  x4                          ((second time) turn up the volume and...)
                                                               
 ____
/e]----------------------------------------------------------|
|B]----------------------------------------------------------|
|G]-------------------------------------------------5--------|
|D]-2-----------------------------------------------3--------|
|A]-0--000000000000000000000000000000000000----2p--0---------|
|E]----------------------------------------------------------|
|
|
|
|e]-------------------------------------------------------------------|
|B]-------------------------------------------------------------------|
|G]------------------------------------------------------5------------|
|D]---2--------------------------------------------------3--5---------|
|A]---0---00000000000000000000000000000000--------2p--0-----3--5--7--2|
|E]------------------------------------------------------------3--5--0|
\_____  x4


                             Chorus

e]------------------------------------------------------|
B]------------------------------------------------------|
G]---2--------------------------------------------------|
D]---2-------2-----2-----2--------5---------------------|
A]---0-------0--0--0--0--0--------5-----5-----5-----5---|
E]--------------------------------3-----3--3--3--3--3---|
     ring       pm    pm         ring      pm   pm        
(It's metal and mayhem!             I can smell it in the air)

e]-----------------------------< CHORD: E MAJOR >-0----|
B]------------------------------------------------0----|
G]------------------------------------------------1----|
D]---------3----------------------------2---------2----|
A]---------3-------3-----3-----3--------2---------2----|
E]---------1-------1--1--1--1--1--------0---------0----|
           ring       pm    pm        ring      pm   pm         

 ____
/e]-------------------------------------------------------------|
|B]-------------------------------------------------------------|
|G]--------------------------------------------------------9bend|
|D]-10--------10-----------10----9---------9---------9----------|
|A]---12-12-12--12-12-12-12--12---10-10-10--10-10-10--10-10-----|
|E]-------------------------------------------------------------|
|    (Tune up your guitars     and warm up the amps! )
|
|e]-------------------------------------------------------------|
|B]-------------------------------------------------------------|
|G]-------------------------------------------------------------|
|D]--10-------10------10---9-------9-------9----10\7-10-9-7-9-7-|
|A]-----8-8-8---8-8-8----8---7-7-7---7-7-7---7------------------|
|E]-------------------------------------------------------------|
\_______ x2


                   Bridge

e]-------------------------------------------------------|
B]-------------------------------------------------------|
G]-------------------------------------------------------|
D]-------------------------------------------------------|
A]-5-----5-----4-----4-------5-----5------3-2---------2--|
E]----7-----7-----5------5------3-----3-------3--2----0--|

(...Shooooooooooooooooooooooooooooooooooooooooooooow!)

                     Verse
                     Chorus



                   Solo should be here
                   Rest, working on the pinched harmonic part etc.
                   Sorry again for not tabbing everythin
Добавлено: 02.04.2012
Вам также может быть интересно:
Другие материалы по этой песне:
  • Аккорды и текст

Страница создана 02.04.2012
http://primanota.ru/nihilist/metal-and-mayhem-chords.htm
Привет, Гость.
Предлагаем пройти революционный курс по гитаре.
Подарок от PrimaNota.Ru, забирай!