PrimaNota.ru - самый крупный в мире бесплатный архив песенных текстов, аккордов, табулатур и нот


Nihilismo - Sonriendo Sin Felicidad - таба, видео

Регистрация Запомнить меня
Войти через:  Facebook Google Twitter Vk Yandex Mail.ru

Nihilismo - Sonriendo Sin Felicidad - таба, видео

Печатать
Просмотров: 62
Intro:

E|------------------------------|
B|------------------------------|
G|------------------------------|
D|-5--------5--------5--------5-|
A|-5--------5--------5--------5-|
E|-3--------3--------3--------3-|

1er guitarra:

E|-----------------------------|-----------------------------|
B|-----------------------------|-----------------------------|
G|-----------4-5-4---------4---|-----------4-5-4---------4---|
D|---5-5-7-----------7-5-------|---5-5-7-----------7-5-------|
A|-----------------------------|-----------------------------|
E|-----------------------------|-----------------------------|

E|---------------------------------------------------|
B|--------------------------------8-7-------8h7------|
G|----------4-5-4-5-4-5/7---7-7---------7--------7---|
D|---5-5-7-------------------------------------------|
A|---------------------------------------------------|
E|---------------------------------------------------|

2da guitarra: (de fondo)

E|------------------------------|
B|------------------------------|
G|------------------------------|
D|-5--------5--------5--------5-|
A|-5--------5--------5--------5-|
E|-3--------3--------3--------3-|

E|------------------------------------------|
B|------------------------------------------|
G|----------------------7777-7777-7777-7777-|
D|-5555-5555-5555-5555--7777-7777-7777-7777-|
A|-5555-5555-5555-5555--5555-5555-5555-5555-|
E|-3333-3333-3333-3333----------------------|


Verso:

Sonriendo sin felicidad, defraudado y triste un dia mas...
E|------------------------------------------------------------------|
B|------------------------------------------------------------------|
G|------------------------------------------------------------------|
D|-5--------5--------5--------5--------5--------5--------5--------5-|
A|-5--------5--------5--------5--------5--------5--------5--------5-|
E|-3--------3--------3--------3--------3--------3--------3--------3-|

E|------------------------------|
B|------------------------------|
G|------------------------------|
D|-5--------5--------5--------5-|
A|-5--------5--------5--------5-|
E|-3--------3--------3--------3-|

y yo aca siempre sigo parado en el mismo lugar...
E|------------------------------------------|
B|------------------------------------------|
G|-7777-7777-7777-7777----------------------|
D|-7777-7777-7777-7777--5555-5555-5555-5555-|
A|-5555-5555-5555-5555--5555-5555-5555-5555-|
E|----------------------3333-3333-3333-3333-|

sonriendo sin felicidad, mis recuerdos vuelven a sangrar...
E|------------------------------------------------------------------|
B|------------------------------------------------------------------|
G|------------------------------------------------------------------|
D|-5--------5--------5--------5--------5--------5--------5--------5-|
A|-5--------5--------5--------5--------5--------5--------5--------5-|
E|-3--------3--------3--------3--------3--------3--------3--------3-|

E|------------------------------|
B|------------------------------|
G|------------------------------|
D|-5--------5--------5--------5-|
A|-5--------5--------5--------5-|
E|-3--------3--------3--------3-|

nunca tuve ni tengo nada para dar, nada para dar...
E|------------------------------------------|
B|------------------------------------------|
G|-7777-7777-7777-7777----------------------|
D|-7777-7777-7777-7777--5555-5555-5555-5555-|
A|-5555-5555-5555-5555--5555-5555-5555-5555-|
E|----------------------3333-3333-3333-3333-|

E|------------------------------------------|
B|------------------------------------------|
G|-7777-7777-7777-7777----------------------|
D|-7777-7777-7777-7777--5555-5555-5555-5555-|
A|-5555-5555-5555-5555--5555-5555-5555-5555-|
E|----------------------3333-3333-3333-3333-|

solo siento mi frustracion, nada que calme mi dolor...
E|---------------------|
B|---------------------|
G|---------------------|
D|-2222-5555-5555-5555-|
A|-2222-5555-5555-5555-|
E|-0000-3333-3333-3333-|

solo siento mi frustracion...
E|---------------------|
B|---------------------|
G|------7777-7----5----|
D|-2222-7777-7----5----|
A|-2222-5555-5----3----|
E|-0000----------------|

 ya no puedo sonreir eso no sale para mi...
E|--------------------------------------|
B|--------------------------------------|
G|----------77777777-55555555-77777777--|
D|-55555555-77777777-55555555-77777777--|
A|-55555555-55555555-55555555-55555555--|
E|-33333333----------33333333-----------|

no duele caerse cuando ya estas tan abajo...
E|--------------------------------------|
B|--------------------------------------|
G|----------77777777-55555555-77777777--|
D|-55555555-77777777-55555555-77777777--|
A|-55555555-55555555-55555555-55555555--|
E|-33333333----------33333333-----------|

Puente: (1:45)

1er guitarra:

E|--------------------------------------|
B|--------------------------------------|
G|----------77777777-55555555-77777777--|
D|-55555555-77777777-55555555-77777777--|
A|-55555555-55555555-55555555-55555555--|
E|-33333333----------33333333-----------|

2da guitarra:

E|------------------|
B|------------------|
G|-5-5-5-75-4-2-0---|
D|----------------4-|
A|------------------|
E|------------------|

Desilucion, frustracion, soledad y traicion...
E|--------------------------------------|
B|--------------------------------------|
G|----------77777777-55555555-77777777--|
D|-55555555-77777777-55555555-77777777--|
A|-55555555-55555555-55555555-55555555--|
E|-33333333----------33333333-----------|

[Repite puente]

Final del puente:
E|-------------------------|
B|-------------------------|
G|-5-5-5-75-4-2-0-4-3-3----|
D|-------------------7-7-5-|
A|-------------------------|
E|-------------------------|

Cualquier p*teada, sugerencia o en el muy hipotetico caso que quieran agradecerme por la 
tablatura, mandenme un correo a lucagd.stalker@gmail.com
Salutes gente
Добавлено: 16.10.2013
Другие материалы по этой песне:
  • Аккорды и текст

Страница создана 16.10.2013
http://primanota.ru/nihilismo/sonriendo-sin-felicidad-chords.htm
Привет, Гость.
Предлагаем пройти революционный курс по гитаре.
Подарок от PrimaNota.Ru, забирай!