PrimaNota.ru - самый крупный в мире бесплатный архив песенных текстов, аккордов, табулатур и нот


Nightwish - Yours Is An Empty Hope Live - таба, видео

Регистрация Запомнить меня
Войти через:  Facebook Google Twitter Vk Yandex Mail.ru

Nightwish - Yours Is An Empty Hope Live - таба, видео

Печатать
Просмотров: 146
-------------------------------------------------------------------------------
                    Yours is an Empty Hope(Live)- Nightwish
-------------------------------------------------------------------------------
Tabbed by: dasGitarre
Tabbed from this video: https://www.youtube.com/watch?v=XtXqUNB8zrU
Tuning:DGCFAD

Intro 0:29-1:10
D|----------------------------------------------------------------------------------------|
A|----------------------------------------------------------------------------------------|
F|----------------------------------------------------------------------------------------|
C|----------------------------------------------------------------------------------------|
G|-2-----3-----2-----------1---3-0-3-----3-----3-----3-25-3-----3-----3-----------1---3-0-|
D|-0-0-0-1-0-0-0-0-1-0-3-0---0-----1-0-0-1-0-0-1-0320-0---1-0-0-1-0-0-1-0-1-0-3-0---0-----|
     * *   * *                       * *   * *   ********   * *   * *
End of intro
D|----------------------|
A|----------------------|
F|----------------------|
C|----------------------| Play all of intro x4
G|----------------------|
D|633-633-63-522-522-52-|

1:11 "Tear me to bits..."
D|------------------------------------------------------------------------------------|
A|------------------------------------------------------------------------------------|
F|------------------------------------------------------------------------------------|
C|------------------------------------------7-----7-----2-----------------------------|
G|2-------------2-------------2-------------5-5-5-5-5-5-0-2-------------2-------------|
D|0-0-0-0-0-0-0-0-0-0-0-0-0-0-0-0-0-0-0-0-0---------------0-0-0-0-0-0-0-0-0-0-0-0-0-0-|
    * * * * * *   * * * * * *   * * * * * *   * *   * *     * * * * * *   * * * * * *
D|---------------------------------------------------------------------------------|
A|---------------------------------------------------------------------------------|
F|---------------------------------------------------------------------------------|
C|--------------44444444---------------------------------------------7-----7-----2-|
G|5-----5-----5-22222222-2-----------------------------2-------------5-5-5-5-5-5-0-|
D|3-3-3-3-3-3-3----------0-0-0-0-0-0-0-000-0-0-0-0-0-0-0-0-0-0-0-0-0---------------|
    * *   * *              * * * * * * *** * * * * * *   * * * * * *   * *   * *
D|-------------------------------------------------------------|
A|-------------------------------------------------------------|
F|------------------------------------------7-7-7-7-7-7-7-7-7--|
C|------------------------------------------7-7-7-7-7-7-7-7-7--|
G|2-------------2-------------5-5-5-5-5-5-5-5-5-5-5-5-5-5-5-5--|
D|0-0-0-0-0-0-0-0-0-0-0-0-0-0-3-3-3-3-3-3-3-5-5-5-5-5-5-5-5-5--|
    * * * * * *   * * * * * *
1:31 Marco: "I can't make you want the truth..."
D|--------------------------------|
A|----------------------------5-6-|
F|----------------------------4-5-|
C|---------------------2-2-2--2-3-|
G|-3p2-3p2-3p2-3p2-32--2-2-2--2-3-|
D|0---0---0---0---0--0-0-0-0------|
  *   *   *   *   *    * * * 
1:37 "Yours is an empty hope!"
D|---------------------------------------------------------------------------|
A|---------------------------------------------------------------------------|
F|-------------------------------------8-6-----------------------------------|
C|5-5-5-5-5-5-5-5-5-5-5-5-5-5-5-5-5-5--8-7-555-5-55-55-55-3-555-5-55-55-5555-|
G|5-5-5-5-5-5-5-5-5-5-5-5-5-5-5-5-5-5--6-4-555-5-55-55-55-3-555-5-55-55-5555-|
D|3-3-3-3-3-3-3-3-3-3-3-3-3-3-3-3-3-3------333-3-33-33-33-1-333-3-33-33-3333-|
  * * * * * * * * * * * * * * * * * *      *** * ** ** **   *** * ** ** ****
1:48 "Yours is an empty hope!"
D|----------------------------------------------------------------------------------------------|
A|----------------------------------------------------------------------------------------------|
F|----------------------------------------------------------------------------------------------|
C|--------------------------------------------------------5-555-5-55-55-55-3-555-5-55-55-5555-54|
G|----------------666-666-6-6-6-6-888-888-8-8-8-8-888-888-3-555-5-55-55-55-3-555-5-55-55-5555-54|
D|333-333-3-3-3-3-------------------------------------------333-3-33-33-33-1-333-3-33-33-3333-32|
  *** *** * * * * *** *** * * * * *** *** * * * * *** ***   *** * ** ** **   *** * ** ** ****
Repeat entire intro once during 1:59-2:08
D|----------------------------------------------------------------------------------------|
A|----------------------------------------------------------------------------------------|
F|----------------------------------------------------------------------------------------|
C|----------------------------------------------------------------------------------------|
G|-2-----3-----2-----------1---3-0-3-----3-----3-----3-25-3-----3-----3-----------1---3-0-|
D|-0-0-0-1-0-0-0-0-1-0-3-0---0-----1-0-0-1-0-0-1-0320-0---1-0-0-1-0-0-1-0-1-0-3-0---0-----|
     * *   * *                       * *   * *   ********   * *   * *   
D|----------------------|
A|----------------------|
F|----------------------|
C|----------------------| 
G|----------------------|
D|633-633-63-522-522-52-|

2:09 Floor: "Feed me to pigs..."
D|------------------------------------------------------------------------------------|
A|------------------------------------------------------------------------------------|
F|------------------------------------------------------------------------------------|
C|------------------------------------------7-----7-----2-----------------------------|
G|2-------------2-------------2-------------5-5-5-5-5-5-0-2-------------2-------------|
D|0-0-0-0-0-0-0-0-0-0-0-0-0-0-0-0-0-0-0-0-0---------------0-0-0-0-0-0-0-0-0-0-0-0-0-0-|
    * * * * * *   * * * * * *   * * * * * *   * *   * *     * * * * * *   * * * * * *
D|---------------------------------------------------------------------------------|
A|---------------------------------------------------------------------------------|
F|---------------------------------------------------------------------------------|
C|--------------44444444---------------------------------------------7-----7-----2-|
G|5-----5-----5-22222222-2-----------------------------2-------------5-5-5-5-5-5-0-|
D|3-3-3-3-3-3-3----------0-0-0-0-0-0-0-000-0-0-0-0-0-0-0-0-0-0-0-0-0---------------|
    * *   * *              * * * * * * *** * * * * * *   * * * * * *   * *   * *
D|-------------------------------------------------------------|
A|-------------------------------------------------------------|
F|------------------------------------------7-7-7-7-7-7-7-7-7--|
C|------------------------------------------7-7-7-7-7-7-7-7-7--|
G|2-------------2-------------5-5-5-5-5-5-5-5-5-5-5-5-5-5-5-5--|
D|0-0-0-0-0-0-0-0-0-0-0-0-0-0-3-3-3-3-3-3-3-5-5-5-5-5-5-5-5-5--|
    * * * * * *   * * * * * *
2:30 Marco: "I can't let you have the world..."
D|--------------------------------|
A|----------------------------5-6-|
F|----------------------------4-5-|
C|---------------------2-2-2--2-3-|
G|-3p2-3p2-3p2-3p2-32--2-2-2--2-3-|
D|0---0---0---0---0--0-0-0-0------|
  *   *   *   *   *    * * *
2:35 "Yours is an empty hope!"
D|---------------------------------------------------------------------------|
A|---------------------------------------------------------------------------|
F|-------------------------------------8-6-----------------------------------|
C|5-5-5-5-5-5-5-5-5-5-5-5-5-5-5-5-5-5--8-7-555-5-55-55-55-3-555-5-55-55-5555-|
G|5-5-5-5-5-5-5-5-5-5-5-5-5-5-5-5-5-5--6-4-555-5-55-55-55-3-555-5-55-55-5555-|
D|3-3-3-3-3-3-3-3-3-3-3-3-3-3-3-3-3-3------333-3-33-33-33-1-333-3-33-33-3333-|
  * * * * * * * * * * * * * * * * * *      *** * ** ** **   *** * ** ** ****
2:45 "Yours is an empty hope!"
D|----------------------------------------------------------------------------------------------|
A|----------------------------------------------------------------------------------------------|
F|----------------------------------------------------------------------------------------------|
C|--------------------------------------------------------5-555-5-55-55-55-3-555-5-55-55-5555---|
G|----------------666-666-6-6-6-6-888-888-8-8-8-8-888-888-3-555-5-55-55-55-3-555-5-55-55-5555---|
D|333-333-3-3-3-3-------------------------------------------333-3-33-33-33-1-333-3-33-33-3333-32|
  *** *** * * * * *** *** * * * * *** *** * * * * *** ***   *** * ** ** **   *** * ** ** ****
2:57 Chugging
D|------------------------------------------------------------------|
A|------------------------------------------------------------------|
F|----------------------------------7-------------------------------|
C|----------------------9-----5-----5---------------------------5---| 
G|-2-22-22-222-222-2-22-7-7-7-3-3-3-5-222-2-22-22-222-222-2-222-3-4-|
D|-0-00-00-000-000-0-00---------------000-0-00-00-000-000-0-000---2-|
   * ** ** *** *** * **   * *   * *   *** * ** ** *** *** * *** 
D|------------------------------------------------------------------|
A|------------------------------------------------------------------|
F|----------------------------------7-------------------------------|
C|----------------------9-----5-----5---------------------------5---|3:18-3:47 Guitar break
G|-2-22-22-222-222-2-22-7-7-7-3-3-3-5-222-2-22-22-222-222-2-222-3-4-|
D|-0-00-00-000-000-0-00---------------000-0-00-00-000-000-0-000---2-|
   * ** ** *** *** * **   * *   * *   *** * ** ** *** *** * ***
3:48 Floor vocals                         3:59 Chugging
D|---------------------------------------------------------------------------|
A|---------------------------------------------------------------------------|
F|---------------------------------------------------------------------------|
C|4--------------------4-------------------------------------------------77\-|
G|4-let ring-----------4-let ring---------2-2-22-2-2-2-22-2-2-2-22-22222-55\-|
D|2----------------2-2-2------------------0-0-00-0-0-0-00-0-0-0-00-00000-----|
                   * *                    * * ** * * * ** * * * ** *****
                                      
D|-----------------------------------|
A|-----------------------------------|
F|-----------------------------------|
C|------------------5-5-55-55555-77\-|
G|2-2-22-2-2-2-22-2-3-3-33-33333-55\-|
D|0-0-00-0-0-0-00-0------------------|
  * * ** * * * ** * * * ** *****
4:09 Floor: "Yours is an empty hope!"                
D|-0--0--0---0--00--0-|                  
A|-x--x--x---x--xx--x-|
F|-3--3--3---3--33--3-|
C|-2--2--2---2--22--2-|
G|-1--1--1---1--11--1-|
D|-0--0--0---0--00--0-|

4:19
D|-------------------------------------------|
A|-------------------------------------------|
F|-------------------------------------------|
C|-------------------------------------------| Repeat once
G|-------------------------------------------|
D|12/-0-0-0-0-6-6~-0-0-0-0-6-6~-0-0-0-0-6~~~-|
      * * * *      * * * *      * * * * 
4:30 repeat intro 
D|----------------------------------------------------------------------------------------|
A|----------------------------------------------------------------------------------------|
F|----------------------------------------------------------------------------------------|
C|----------------------------------------------------------------------------------------|
G|-2-----3-----2-----------1---3-0-3-----3-----3-----3-25-3-----3-----3-----------1---3-0-|
D|-0-0-0-1-0-0-0-0-1-0-3-0---0-----1-0-0-1-0-0-1-0320-0---1-0-0-1-0-0-1-0-1-0-3-0---0-----|
     * *   * *                       * *   * *   ********   * *   * *   
D|----------------------|
A|----------------------|
F|----------------------|
C|----------------------| Play all of repeat intro x2
G|----------------------|
D|633-633-63-522-522-52-|

4:50 Floor and Marco: "I can't let you have the world..."
D|----------------------------|
A|----------------------------|
F|----------------------------|
C|---------------------2-2-2--|
G|-3p2-3p2-3p2-3p2-32--2-2-2--|
D|0---0---0---0---0--0-0-0-0--|
  *   *   *   *   *    * * *
4:57 "Yours is an empty hope!"
D|---------------------------------------------------------------------------|
A|---------------------------------------------------------------------------|
F|-------------------------------------8-6-----------------------------------|
C|5-5-5-5-5-5-5-5-5-5-5-5-5-5-5-5-5-5--8-7-555-5-55-55-55-3-555-5-55-55-5555-|
G|5-5-5-5-5-5-5-5-5-5-5-5-5-5-5-5-5-5--6-4-555-5-55-55-55-3-555-5-55-55-5555-|
D|3-3-3-3-3-3-3-3-3-3-3-3-3-3-3-3-3-3------333-3-33-33-33-1-333-3-33-33-3333-|
  * * * * * * * * * * * * * * * * * *      *** * ** ** **   *** * ** ** ****
5:07 "Yours is an empty hope!"
D|------------------------------------------------------------------------------------------|
A|------------------------------------------------------------------------------------------|
F|------------------------------------------------------------------------------------------|
C|--------------------------------------------------------5-555-5-55-55-55-3-555-5-55-55-55-|
G|----------------666-666-6-6-6-6-888-888-8-8-8-8-888-888-3-555-5-55-55-55-3-555-5-55-55-55-|
D|333-333-3-3-3-3-------------------------------------------333-3-33-33-33-1-333-3-33-33-33-|
  *** *** * * * * *** *** * * * * *** *** * * * * *** ***   *** * ** ** **   *** * ** ** **            
5:18 "Yours is an empty hope!" 
D|---------------------------------------------------------------------------|
A|---------------------------------------------------------------------------|
F|-------------------------------------8-6-----------------------------------|
C|5-5-5-5-5-5-5-5-5-5-5-5-5-5-5-5-5-5--8-7-555-5-55-55-55-3-555-5-55-55-55---|
G|5-5-5-5-5-5-5-5-5-5-5-5-5-5-5-5-5-5--6-4-555-5-55-55-55-3-555-5-55-55-55---|
D|3-3-3-3-3-3-3-3-3-3-3-3-3-3-3-3-3-3------333-3-33-33-33-1-333-3-33-33-33---|
                                           *** * ** ** **   *** * ** ** **
5:29 "Yours is an empty hope!"
D|---------------------------------------------------------------------------|
A|---------------------------------------------------------------------------|
F|---------------------------------------------------------------------55----|
C|5-5-5-5-5-5-5-5-8-8-8-8-8-8-8-8-10-10-10-10-10-10-10-10-10-10-10-10--55----| 
G|5-5-5-5-5-5-5-5-6-6-6-6-6-6-6-6-8--8--8--8--8--8--8--8--8--8--8--8---33----|
D|3-3-3-3-3-3-3-3------------------------------------------------------33----|
  * * * * * * * * * * * * * * * * *  *  *  *  *  *  *  *  *  *  *  * 
************************************

| /   slide up
| \   slide down
| h   hammer-on
| p   pull-off
| ~   vibrato
| *   palm mute
| +   harmonic
| x   Mute note
| b   Bend
| pb  Pre-bend
| br  Bend release
| pbr Pre-bend release
| brb Bend release bend

************************************
Добавлено: 09.02.2016
Другие материалы по этой песне:
  • Аккорды и текст

Страница создана 09.02.2016
http://primanota.ru/nightwish/yours-is-an-empty-hope-live-chords.htm
Привет, Гость.
Предлагаем пройти революционный курс по гитаре.
Подарок от PrimaNota.Ru, забирай!