PrimaNota.ru - самый крупный в мире бесплатный архив песенных текстов, аккордов, табулатур и нот


Nightwish - Wanderlust - аккорды и текст, таба, бас-таба, видео

Регистрация Запомнить меня
Войти через:  Facebook Google Twitter Vk Yandex Mail.ru

Nightwish - Wanderlust - аккорды и текст, таба, бас-таба, видео

Печатать
Просмотров: 839
Уроки эстрадного вокала в Санкт-Петербурге
Wanderlust
Nightwish
Normal tuning:	EADGBE
 
Intro:		GuitarI
[e: ----------------------------12-13-15-17----------17-----------------
B: -------------------------15-------------18-17-15--------------------
G: -14----------------12-14--------------------------------------------
D: ----15-14-12-14-15--------------------------------------------------
A: --------------------------------------------------------------------
E: --------------------------------------------------------------------

e: -20----20----20----20----20----20----20----20-18-17-15--------------
B: ----20----18----17----------20----18----17-------------15-----------
G: ----------------------19----------------------------------15-14-12--
D: --------------------------------------------------------------------
A: --------------------------------------------------------------------
E: --------------------------------------------------------------------

e: --------------------------------------------------------------------
B: --------------------------------------------------------------------
G: ----------------------------------------12-------12-----------------
D: -12-------------------------12-------12-------12----14----11-14-----
A: ----13-12----------12-14-15-------13-------14----------12-----------
E: ----------15-10-15-------------15-----------------------------------

e: --------------------------------------------------------------------
B: --------------------------------------------------------------------
G: -14-----------------------------------------------------------------
D: ----15-14-12--------------------------------------------------------
A: --------------------------------------------------------------------
E: --------------------------------------------------------------------]

end of Intro:	[e: --------------------------------------------------------
B: -------15~-----15-13~---13------------------------------
G: -15~-----------------------15-14-12~-----14-------------
D: --------------------------------------------15-14--12~-
A: --------------------------------------------------------
E: --------------------------------------------------------]

GuitarII
[e: --------------------------------------------
B: --------------------------------------------
G: -7--------------7-------------------------5-
D: -7---3---5---7--7---3---5---8-7--8--5--3--5-
A: -5--3---5---7--5--3---5---8-7--8--5--3--3-
E: -----1--3--5------1--3--6-5--6--3--1----]

verse:		GuitarI, II
[e: ----------------------------------------------------------------------
B: ----------------------------------------------------------------------
G: -7--------------------------------------7-----------------------------
D: -7-----3----5------5--5--5---7-7-7------7-----3-----5-----5-5-5---8-7-
A: -5-----3----5------5--5--5---7-7-7------5-----3-----5-----5-5-5---8-7-
E: -------1----3------3--3--3---5-5-5------------1-----3-----3-3-3---6-5-

e: --------------------------------------------------------------------
B: ----------------------keyboard--------------------------------------
G: -----8---7----(-7--5-5--7--8-8-8--10-10)---------8---10-------------
D: -8---8---7----(-7--5-5--7--8-8-8--10-10)-----8---8---10-------------
A: -8---6---5----(-5-3-3--5-6-6-6---8--8)-----8---6---8--------------
E: -6-------------------------------------------6----------------------]

chorus:		[e: ----------------------------------------------------------------------
B: ----------------------------------------------------------------------
G: ------5----8---10-------10--------8---5-7-8-10-----10-----------------
D: -5----5----8---10---8---10----5---8---5-7-8-10--8--10-----------------
A: -5----3----6---8----8---8-----5---6---3-5-6-8---8--8------------------
E: -3------------------6---------3-----------------6---------------------

e: ---------------------------------------------------------------------
B: ---------------------------------------------------------------------
G: -----10---8---7--------5-------10------------------------------------
D: -5---10---8---7----5---5---8---10------------------------------------
A: -5---8----6---5----5---3---8---8-------------------------------------
E: -3-----------------3-------6-----------------------------------------]

bridge:		[e: ---------------------------------------------------------------------------
B: ---------------------------------------------------------------------------
G: ---------------------------------------------------------------7-----------
D: -5---6-5---6--3--5-----5-5--6-5-5----6--3-----2-2--3--2-2----3-7-----2-2-2-
A: -5---6-5---6--3--5-...-5-5--6-5-5----6--3-...-2-2--3--2-2----3-5-...-2-2-2-
E: -3---4-3---4--1--3-----3-3-4-3 3---4--1-----0-0-1--0-0---1-------0-0-0-

e: ---------------------------------------------------------------------------
B: ---------------------------------------------------------------------------
G: ---------------------------------------------------------------------------
D: -2-2----5---5--2-2----2-2----5---5/6---2----2-2----5---5--2-2--------------
A: -2-2----5---5--2-2----2-2----5---5/6---2----2-2----5---5--2-2---7777--4444-
E: -0-0--0-3-0-3--0-0----0-0--0-3-0-3/4-0-0----0-0--0-3-0-3--0-0--------------]

GuitarII
[e: -----------------------
B: -----------------------
G: --6------9-------------
D: --6------9-------------
A: --4------7-------------
E: -----------------------]

GuitarI
[e: -----------------------
B: --repeat---------------
G: -----------14-12-------
D: -----------------14-15-
A: -----------------------
E: -----------------------]

outro:		[e: ---------------------------------------
B: ---------------------------------------
G: ----11--6--8-----6-----11--6--7--11--7-
D: -7--11--6--8--8--6--7--11--6--7--11--7-
A: -7--9---4--6--8--4--7--9---4--5--9---5-
E: -5------------6-----5------------------]

End.

-

T. Holopainen

Bass

[G--------------------------------------------------------------------
D--------------------------------------------------------------------
A--5-5-5-5-5-5-5-5-5-5-5-5-5-5-5-5-----------------------------------
E------------------------------------1-1-1-1-1-1-1-1-1-1-1-1-1-1-1-1-

--------------------------------------------------------------------
--------------------------------------------------------------------
----------------------------------------------------0-0-0-0-0-0-0-0-
--3-3-3-3-3-3-3-3-3-3-3-3-3-3-3-3---3-3-3-3-3-3-3-3-----------------

--------------------------------------------------------------------
--------------------------------------------------------------------
--5-5-5-5-5-5-5-5-5-5-5-5-5-5-5-5-----------------------------------
------------------------------------1-1-1-1-1-1-1-1-1-1-1-1-1-1-1-1-

--------------------------------------------------------------------
--------------------------------------------------------------------
----------------------------------------------------1-1-1-1-0-0-0-0-
--3-3-3-3-3-3-3-3-3-3-3-3-3-3-3-3---3-3-3-3-3-3-3-3-----------------

--------------------------------------------------------------------
--------------------------------------------------------------------
--1-1-1-1-1-1-1-1-1-1-1-1-1-1-1-1-----------------------------------
------------------------------------3-3-3-3-3-3-3-3-3-3-3-3-3-3-3-3-

--------------------------------------------------------------------
--------------------------------------------------------------------
------------------------------------3-3-3-3-3-3-3-3-4-4-4-4-4-4-4-4-
--1-1-1-1-1-1-1-1-1-1-1-1-1-1-1-1-----------------------------------

----------------------------------------------------
--0--0--0--0--0--0--0--0----------------------------
----------------------------------------------------
----------------------------1--1--1--1--1--1--1--1--

----------------------------------------------------
----------------------------------------------------
----------------------------------------0--0--0--0--
--3--3--3--3--3--3--3--3----3--3--3--3--------------

----------------------------------------------------
--0--0--0--0--0--0--0--0----------------------------
----------------------------------------------------
----------------------------1--1--1--1--1--1--1--1--

----------------------------------------------------------------------------
----------------------------------------------------------------------------
----------------------------------------1----0------1--1--1--1--1--1--1--1--
--3--3--3--3--3--3--3--3----3--3--3--3--------------------------------------

------------------------------------------------------
--1--1--1--1--1--1--1--1----0-0-0--0--0-0--0-0--0--0--
------------------------------------------------------
------------------------------------------------------

------------------------------------------------------
--0-0-0--0--0-0--0-0--0--0----------------------------
------------------------------1--1--1--1--1--1--1--1--
------------------------------------------------------

------------------------------------------------------------
--1--1--1--1--1--1--1--1----3-3-3-3-3-3-3-3-3-3-3-3-3-3-3-3-
------------------------------------------------------------
------------------------------------------------------------

-------------------------------------------------------------
--3-3-3-3-3-3------------------------------------------------
--------------3-0--------------------------------------------
------------------1----------3-3-3-3-3-3-3-3-3-3-3-3-3-3-3-3-

--------------------------------------------------------------------
------------------------------------1-1-1-1-1-1-1-1-----------------
--3-3-3-3-3-3-3-3-3-3-3-3-3-3-3-3-----------------------------------
----------------------------------------------------1-1-1-1-1-1-1-1-

--------------------------------------------------------------------
--------------------------------------------------------------------
--1-1-1-1-1-1-1-1---------------------------------------------------
------------------1-1-1-1-1-1-1-1---3-3-3-3-3-3-3-3-3-3-3-3-3-3-3-3-

--------------------------------------------------------------------
--1-1-1-1-1-1-1-1-1-1-1-1-1-1-1-1-----------0-0-0-0-1-1-1-1-3-3-3-3-
------------------------------------3-3-3-3-------------------------
--------------------------------------------------------------------

--------------------------------------------------------------------
--------------------------------------------------------------------
--1-1-1-1-1-1-1-1---------------------------------------------------
------------------1-1-1-1-1-1-1-1---3-3-3-3-3-3-3-3-1-1-1-1-1-1-1-1-

--------------------------------------------------------------------
--1-1-1-1-1-1-1-1-0-0-0-0-0-0-0-0-----------------------------------
----------------------------------------------------3-3-3-3-3-3-3-3-
------------------------------------3-3-3-3-3-3-3-3-----------------

--------------------------------------------------------------------
--------------------------------------------------------------------
--1-1-1-1-1-1-1-1-------------------5-5-5-5-5-5-5-5-5-5-5-5-5-5-5-5-
------------------1-1-1-1-1-1-1-1-----------------------------------

--------------------------------------------------------------------
--------------------------------------------------------------------
--------------------------------------------------------------------
--1-1-1-1-1-1-1-1-1-1-1-1-1-1-1-1---3-3-3-3-3-3-3-3-3-3-3-3-3-3-3-3-

--------------------------------------------------------------------
--------------------------------------------------------------------
------------------0-0-0-0-0-0-0-0---5-5-5-5-5-5-5-5-5-5-5-5-5-5-5-5-
--3-3-3-3-3-3-3-3---------------------------------------------------

--------------------------------------------------------------------
--------------------------------------------------------------------
--------------------------------------------------------------------
--1-1-1-1-1-1-1-1-1-1-1-1-1-1-1-1---3-3-3-3-3-3-3-3-3-3-3-3-3-3-3-3-

--------------------------------------------------------------------
--------------------------------------------------------------------
------------------1-1-1-1-0-0-0-0---1-1-1-1-1-1-1-1-1-1-1-1-1-1-1-1-
--3-3-3-3-3-3-3-3---------------------------------------------------

--------------------------------------------------------------------
--------------------------------------------------------------------
--------------------------------------------------------------------
--3-3-3-3-3-3-3-3-3-3-3-3-3-3-3-3---1-1-1-1-1-1-1-1-1-1-1-1-1-1-1-1-

------------------------------------------------------------
------------------------------------0--0--0--0--0--0--0--0--
--3-3-3-3-3-3-3-3-4-4-4-4-4-4-4-4---------------------------
------------------------------------------------------------

----------------------------------------------------
----------------------------------------------------
----------------------------------------------------
--1--1--1--1--1--1--1--1----3--3--3--3--3--3--3--3--

----------------------------------------------------
----------------------------0--0--0--0--0--0--0--0--
--------------0--0--0--0----------------------------
--3--3--3--3----------------------------------------

----------------------------------------------------------------------------
----------------------------------------------------------------------------
------------------------------------------------------------------1----0----
--1--1--1--1--1--1--1--1----3--3--3--3--3--3--3--3----3--3--3--3------------

----------------------------------------------------
----------------------------1--1--1--1--1--1--1--1--
--1--1--1--1--1--1--1--1----------------------------
----------------------------------------------------

--------------------------------------------------------
--0-0-0--0--0-0--0-0--0--0----0-0-0--0--0-0--0-0--0--0--
--------------------------------------------------------
--------------------------------------------------------

----------------------------------------------------
----------------------------1--1--1--1--1--1--1--1--
--1--1--1--1--1--1--1--1----------------------------
----------------------------------------------------

-------------------------------------------------------------
--3-3-3-3-3-3-3-3-3-3-3-3-3-3-3-3---3-3-3-3-3-3--------------
------------------------------------------------3-0----------
----------------------------------------------------1--------

--------------------------------------------------------------------
--------------------------------------------------------------------
------------------------------------3-3-3-3-3-3-3-3-3-3-3-3-3-3-3-3-
--3-3-3-3-3-3-3-3-3-3-3-3-3-3-3-3-----------------------------------

--------------------------------------------------------------------
--1-1-1-1-1-1-1-1---------------------------------------------------
------------------------------------1-1-1-1-1-1-1-1-----------------
------------------1-1-1-1-1-1-1-1-------------------1-1-1-1-1-1-1-1-

--------------------------------------------------------------------
------------------------------------1-1-1-1-1-1-1-1-1-1-1-1-1-1-1-1-
--------------------------------------------------------------------
--3-3-3-3-3-3-3-3-3-3-3-3-3-3-3-3-----------------------------------

--------------------------------------------------------------------
----------0-0-0-0-1-1-1-1-3-3-3-3-----------------------------------
--3-3-3-3---------------------------1-1-1-1-1-1-1-1-----------------
----------------------------------------------------1-1-1-1-1-1-1-1-

--------------------------------------------------------------------
------------------------------------1-1-1-1-1-1-1-1-0-0-0-0-0-0-0-0-
--------------------------------------------------------------------
--3-3-3-3-3-3-3-3-1-1-1-1-1-1-1-1-----------------------------------

--------------------------------------------------------------------
--------------------------------------------------------------------
------------------3-3-3-3-3-3-3-3---1-1-1-1-1-1-1-1-----------------
--3-3-3-3-3-3-3-3-----------------------------------1-1-1-1-1-1-1-1-

-------------------------------------------------------------
-------------------------------------------------------------
-------------------------------------------------------------
--3--------------3----3--------4----1------3--------------3--

-----------------------------------------------------------------
-----------------------------------------------------------------
-----------------------------------------------------------------
--3--------4----1------3----3----3----3------3----3----4----1----

------------------------------------------------------------------
------------------------------------------------------------------
------------------------------------------------------------------
--3----3----3----3------3----3----4----1------0----0----0----0----

----------------------------------------------------------------
----------------------------------------------------------------
----------------------------------------------------------------
--0----0----1----------0----0----0----0------0----0----1--------

------------------------------------------------------------------------
------------------------------------------------------------------------
------------------------------------------------------------------------
------------------------------------------------------------------------

--------------------------------------------------------------------
--------------------------------------------------------------------
--------------------------------------------------------------------
------------------------0----0--0--0-1--0---1--0--0----0--0--0-1--0-

---------------------------------------------------------------------
---------------------------------------------------------------------
----------------------4----4----4----4----4------4----4----4----4----
--1--0--0----0--0--0-------------------------------------------------

--------------------------------------------------------------------
--------------------------------------------------------------------
--------------------------------------------------------------------
--0-0-0-0-0-0-0-0-0-0-0-0-0-0-0-0---0-0-0-0-0-0-0-0-0-0-0-0-0-0-0-0-

--------------------------------------------
--------------------------------------------
--4----4----4----4------4----4----4----4----
--------------------------------------------

--------------------------------------------------------------------
--------------------------------------------------------------------
--------------------------------------------------------------------
--0-0-0-0-0-0-0-0-0-0-0-0-0-0-0-0---0-0-0-0-0-0-0-0-0-0-0-0-0-0-0-0-

-----------------------------------------------------
-----------------------------------------------------
-----------------------------------------------------
--0-0-0-0-----0--0--0-1--0---1--0--0----0--0--0--1-0-

----------------------------------------------------
----------------------------------------------------
-------------------------------------------------4--
--1-1-0--0----0--0--0-1--0---1--0--0----0--0--0-----

-----------------------------------------------------
-----------------------------------------------------
-----------------------------------------------------
--0-0-0-0-----0--0--0-1--0---1--0--0----0--0--0--1-0-

--------------------------------------------------------------------------
--------------------------------------------------------------------------
-------------------------------------------------4----4----4----4----4----
--1-1-0--0----0--0--0-1--0---1--0--0----0--0--0---------------------------

--------------------------------------------------------
--------------------------------------------------------
--4----4----4----4--------------------------------------
------------------------0-0-0-0-0-0-0-0-0-0-0-0-0-0-0-0-

--------------------------------------------------------
--------------------------------------------------------
------------------------------------4----4----4----4----
--0-0-0-0-0-0-0-0-0-0-0-0-0-0-0-0-----------------------

--------------------------------------------------------
--------------------------------------------------------
--4----4----4----4--------------------------------------
------------------------0-0-0-0-0-0-0-0-0-0-0-0-0-0-0-0-

------------------------------------------------------------------------
------------------------------------------------------------------------
------------------------------------0-----------------------------------
--0-0-0-0-0-0-0-0-0-0-0-0-0-0-0-0----------------------2----------------

----------------------------------------------------------------------------
----------------------------------------------------------------------------
--4-------------------------------------------------------2------------3----
---------------------------------------0------------------------------------

---------------------------------------------------------------------------
---------------------------------------------------------------------------
--4------------------------------------0-----------------------------------
----------------------------------------------------------2----------------

---------------------------------------------------------------------------
---------------------------------------0-----------------------------------
--4------------------------------------------------------------------------
----------------------------------------------------------2----------------

-------------------------------------------------------------------------
-------------------------------------------------------------------------
-------------------------------------------------------------------------
--0----------------------------------------------------------------------

------------------------------------------------------------------------
------------------------------------------------------------------------
------------------------------------------------------------------------
------------------------------------------------------------------------

------------------------------------------------------------------------
------------------------------------------------------------------------
------------------------------------------------------------------------
------------------------------------------------------------------------

------------------------------------------------------------------------
------------------------------------------------------------------------
------------------------------------------------------------------------
------------------------------------------------------------------------

------------------------------------------------------
------------------------------------------------------
------------------------------------------------------
------------------------------------------------------]

-

Text:		I want to see where the sirens sing
Hear how the wolves howl
Sail the dead calm waters of the Pacific

Dance in the fields of coral
Be blinded by the white
Discover the deepest jungle

I want to find The Secret Path
A bird delivered into my heart, so

It's not the end
Not the kingdom come
It is the journey that matters, the distant wanderer
Call of the wild
In me forever and ever and ever forever
Wanderlust
I want to love by the Blue Lagoon
Kiss under the waning moon
Straying, claiming my place in this mortal coil

Riding the dolphins
Asking the mountains
Dreaming Alaska
The Earth can have but Earth

I want to find...

It's not the end...

Look into my eyes and see the wanderer
See the mirrors of a wolf behold the pathfinder

Комментарий:	Wanderlust - довольно избитая, но никогда не теряющая
своей актуальности идея о том, что жизнь - это одно
большое путешествие. И за всю свою жизнь человеку
предстоит открыть для себя много самых различных
вещей. Я не могу передать чувства, захлестнувшие меня
после того, как я, около года безвылазно работая в
одной конторе, поехал на одну неделю на Канарские
острова. Однообразие убивает, и всем нашим фэнам я
желал бы иметь как можно более интересную и
разнообразную жизнь

-

Перевод:	Жажда Странствий

Я жажду увидеть те места, где сирены поют,
Услышать как воют волки,
И паруса духи меня понесут,
Над спокойствием смерти - Океаном Тихим.

Танцевать на кораловых полях,
Ослепнуть в белизне яснейшей,
И на своих двоих ногах,
Исследовать тьму джунглей глубочайших.

И я жажду найти секретные тропы,
Чтобы птицы высвободили сердца волшебные ноты.

И это еще не конец - не пришло еще королевство,
Ветер зовет, я вижу в дали иного странника,
Во мне вся вечность - и больше чем вечность,
Жажда странствий - следы вот избранника.

Я хочу почувствовать Любовь Синей Лагуны,
Поцелуй ощутить под луной уменьшенья,
И только бы не сбиться мне с пути, средь тины,
Среди смертной толчии, среди мученья.

И я жажду мчаться на дельфинах,
Спрашивать секреты гор великих,
Мечты Аляски в снеговых долинах -
- Земля больше чем Земля - это стих.
Я хочу найти...

И это еще не конец - не пришло еще королевство,
Ветер зовет, я вижу в дали иного странника,
Во мне вся вечность - и больше чем вечность,
Жажда странствий - следы вот избранника.

Взгляни в мои глаза и ты увидишь странника,
Увидь в зеркалах волка ищущего путь.

-

T. Holopainen

Guitar 1.

[E--------------------------------------17-13-12-10-
B--------------------------13-15-17-18-------------
G--14-10-------------12-14-------------------------
D--------14-12-14-15-------------------------------
A--------------------------------------------------
E--------------------------------------------------

--20--18-20-17-20----20----20-18-20-17-20----20-
------------------20----18----------------20----
------------------------------------------------
------------------------------------------------
------------------------------------------------
------------------------------------------------

--18-17---------------------------------------
--------20-15---------------------------------
--------------15-14-------------------------2-
--------------------17-12-----------------5---
--------------------------13-12---------5-----
--------------------------------15-10-6-------

--------------------------5-3-1-0-
----------3-----3-5---2-5---------
--3-----3-----3-----2-------------
------5-----5---------------------
----5-----------------------------
----------------------------------

--------------------------------------17-13-12-10-
--------------------------13-15-17-18-------------
--14-10-------------12-14-------------------------
--------14-12-14-15-------------------------------
--------------------------------------------------
--------------------------------------------------

--20--18-20-17-20----20----20-18-20-17-20----20-
------------------20----18----------------20----
------------------------------------------------
------------------------------------------------
------------------------------------------------
------------------------------------------------

--18-17---------------------------------------
--------20-15---------------------------------
--------------15-14-------------------------2-
--------------------17-12-----------------5---
--------------------------13-12---------5-----
--------------------------------15-10-6-------

---------------------------------------------------------------------------
----------3---------------10-8-6-5-----------------------15----------------
--3-----3-------7-9---6-9------------15------------------------------------
------5-----5-8-----7------------------------------------------------------
----5----------------------------------------------------------------------
---------------------------------------------------------------------------

----------------------------------------------------------------------
--13--------13--------------------------------------------------------
-----------------15---14----12~---------------------------------------
------------------------------------15----14--------12----------------
----------------------------------------------------------------------
----------------------------------------------------------------------

------------------------------------------------------------------------
------------------------------------------------------------------------
------------------------------------------------------------------------
------------------------------------------------------------------------
------------------------------------------------------------------------
------------------------------------------------------------------------

------------------------------------------------------------------------
------------------------------------------------------------------------
------------------------------------------------------------------------
------------------------------------------------------------------------
------------------------------------------------------------------------
------------------------------------------------------------------------

------------------------------------------------------------------------
------------------------------------------------------------------------
------------------------------------------------------------------------
------------------------------------------------------------------------
------------------------------------------------------------------------
------------------------------------------------------------------------

---------------------------------------------------------------------------
---------------------------------------------------------------------------
----------------------------------------------------------------7----------
--------------------------------------------------------------------8---7--
---------------------------------------------------------------------------
---------------------------------------------------------------------------

--------------------------------------------------------------------
------------------------------------------------6----8--------------
-----------7-----------------------5---7---8--------------7----5----
--5------------8---7----5---7---8-----------------------------------
--------------------------------------------------------------------
--------------------------------------------------------------------

-------------------------------------------------------------------------
-------------------------------------------------------------------------
-----------7---------------------7---------------------------------5--5--
--8------------8---7----5------------8---7----5-5-5--7-7-7--8-8-8--------
-------------------------------------------------------------------------
-------------------------------------------------------------------------

----------------------------------------------------------------------
----------------------------------------------------------------------
--7----8----7----5------7---5--------------------------------------5--
--------------------------------8--7---8---7----5---7---8--7----8-----
----------------------------------------------------------------------
----------------------------------------------------------------------

----------------------------------------------
----------------------------------------------
--7---5------8---7---5----7----8----7----5----
----------8-----------------------------------
----------------------------------------------
----------------------------------------------

--------------------------------------17-13-12-10-
--------------------------13-15-17-18-------------
--14-10-------------12-14-------------------------
--------14-12-14-15-------------------------------
--------------------------------------------------
--------------------------------------------------

--20--18-20-17-20----20----20-18-20-17-20----20-
------------------20----18----------------20----
------------------------------------------------
------------------------------------------------
------------------------------------------------
------------------------------------------------

--18-17---------------------------------------
--------20-15---------------------------------
--------------15-14-------------------------2-
--------------------17-12-----------------5---
--------------------------13-12---------5-----
--------------------------------15-10-6-------

--------------------------5-3-1-0-
----------3-----3-5---2-5---------
--3-----3-----3-----2-------------
------5-----5---------------------
----5-----------------------------
----------------------------------

--------------------------------------17-13-12-10-
--------------------------13-15-17-18-------------
--14-10-------------12-14-------------------------
--------14-12-14-15-------------------------------
--------------------------------------------------
--------------------------------------------------

--20--18-20-17-20----20----20-18-20-17-20----20-
------------------20----18----------------20----
------------------------------------------------
------------------------------------------------
------------------------------------------------
------------------------------------------------

--18-17---------------------------------------
--------20-15---------------------------------
--------------15-14-------------------------2-
--------------------17-12-----------------5---
--------------------------13-12---------5-----
--------------------------------15-10-6-------

---------------------------------------------------------------------------
----------3---------------10-8-6-5-----------------------15----------------
--3-----3-------7-9---6-9------------15------------------------------------
------5-----5-8-----7------------------------------------------------------
----5----------------------------------------------------------------------
---------------------------------------------------------------------------

----------------------------------------------------------------------
--13--------13--------------------------------------------------------
-----------------15---14----12~---------------------------------------
------------------------------------15----14--------12----------------
----------------------------------------------------------------------
----------------------------------------------------------------------

------------------------------------------------------------------------
------------------------------------------------------------------------
------------------------------------------------------------------------
------------------------------------------------------------------------
------------------------------------------------------------------------
------------------------------------------------------------------------

------------------------------------------------------------------------
------------------------------------------------------------------------
------------------------------------------------------------------------
------------------------------------------------------------------------
------------------------------------------------------------------------
------------------------------------------------------------------------

------------------------------------------------------------------------
------------------------------------------------------------------------
------------------------------------------------------------------------
------------------------------------------------------------------------
------------------------------------------------------------------------
------------------------------------------------------------------------

---------------------------------------------------------------------------
---------------------------------------------------------------------------
----------------------------------------------------------------7----------
--------------------------------------------------------------------8---7--
---------------------------------------------------------------------------
---------------------------------------------------------------------------

--------------------------------------------------------------------
------------------------------------------------6----8--------------
-----------7-----------------------5---7---8--------------7----5----
--5------------8---7----5---7---8-----------------------------------
--------------------------------------------------------------------
--------------------------------------------------------------------

-------------------------------------------------------------------------
-------------------------------------------------------------------------
-----------7---------------------7---------------------------------5--5--
--8------------8---7----5------------8---7----5-5-5--7-7-7--8-8-8--------
-------------------------------------------------------------------------
-------------------------------------------------------------------------

----------------------------------------------------------------------
----------------------------------------------------------------------
--7----8----7----5------7---5--------------------------------------5--
--------------------------------8--7---8---7----5---7---8--7----8-----
----------------------------------------------------------------------
----------------------------------------------------------------------

----------------------------------------------------------------
----------------------------------------------------------------
--7---5------8---7---5----7----8----7----5----------------------
----------8-----------------------------------------------------
----------------------------------------------------------------
----------------------------------------------------------------

------------------------------------------------------------------------
------------------------------------------------------------------------
------------------------------------------------------------------------
------------------------------------------------------------------------
------------------------------------------------------------------------
------------------------------------------------------------------------

------------------------------------------------------------------------
------------------------------------------------------------------------
------------------------------------------------------------------------
------------------------------------------------------------------------
------------------------------------------------------------------------
------------------------------------------------------------------------

------------------------------------------------------------------------
------------------------------------------------------------------------
------------------------------------------------------------------------
------------------------------------------------------------------------
------------------------------------------------------------------------
------------------------------------------------------------------------

------------------------------------------------------------------------
------------------------------------------------------------------------
------------------------------------------------------------------------
------------------------------------------------------------------------
------------------------------------------------------------------------
------------------------------------------------------------------------

------------------------------------------------------------------------
------------------------------------------------------------------------
------------------------------------------------------------------------
------------------------------------------------------------------------
------------------------------------------------------------------------
------------------------------------------------------------------------

--------------------------------------------------------------------
--------------------9h7h5---5h7h9h7h5---5h7h9h7h5---5h7h9h7h5---5h7h
--------------------------4t----------4t----------4t----------4t----
--------------------------------------------------------------------
--------------------------------------------------------------------
--------------------------------------------------------------------

--------------------------------------------------------------------
--9h7h5---5h7h9h7h5---5h7h9h7h5---5h7h9h7h5---5h7-------------------
--------4t----------4t----------4t----------4t----------------------
--------------------------------------------------------------------
--------------------------------------------------------------------
--------------------------------------------------------------------

--------------------------------------------------------------------
--------------------9h7h5---5h7h9h7h5---5h7h9h7h5---5h7h9h7h5---5h7h
--------------------------4t----------4t----------4t----------4t----
--------------------------------------------------------------------
--------------------------------------------------------------------
--------------------------------------------------------------------

--------------------------------------------------------------------
--9h7h5---5h7h9h7h5---5h7h9h7h5---5h7h9h7h5---5h7-------------------
--------4t----------4t----------4t----------4t----------------------
--------------------------------------------------------------------
--------------------------------------------------------------------
--------------------------------------------------------------------

------------------------------------------------------------------------
------------------------------------------------------------------------
------------------------------------------------------------------------
------------------------------------------------------------------------
------------------------------------------------------------------------
------------------------------------------------------------------------

------------------------------------------------------------------------
------------------------------------------------------------------------
------------------------------------------------------------------------
------------------------------------------------------------------------
------------------------------------------------------------------------
------------------------------------------------------------------------

--------------------------------------------------------------------
--------------------9h7h5---5h7h9h7h5---5h7h9h7h5---5h7h9h7h5---5h7h
--------------------------4t----------4t----------4t----------4t----
--------------------------------------------------------------------
--------------------------------------------------------------------
--------------------------------------------------------------------

--------------------------------------------------------------------
--9h7h5---5h7h9h7h5---5h7h9h7h5---5h7h9h7h5---5h7-------------------
--------4t----------4t----------4t----------4t----------------------
--------------------------------------------------------------------
--------------------------------------------------------------------
--------------------------------------------------------------------

--------------------------------------------------------------------
--------------------9h7h5---5h7h9h7h5---5h7h9h7h5---5h7h9h7h5---5h7h
--------------------------4t----------4t----------4t----------4t----
--------------------------------------------------------------------
--------------------------------------------------------------------
--------------------------------------------------------------------

--------------------------------------------------------------------
--9h7h5---5h7h9h7h5---5h7h9h7h5---5h7h9h7h5---5h7-------------------
--------4t----------4t----------4t----------4t----------------------
--------------------------------------------------------------------
--------------------------------------------------------------------
--------------------------------------------------------------------

------------------------------------------------------------------------
------------------------------------------------------------------------
------------------------------------------------------------------------
------------------------------------------------------------------------
------------------------------------------------------------------------
------------------------------------------------------------------------

------------------------------------------------------------------------
------------------------------------------------------------------------
------------------------------------------------------------------------
------------------------------------------------------------------------
------------------------------------------------------------------------
------------------------------------------------------------------------

------------------------------------------------------------------------
------------------------------------------------------------------------
------------------------------------------------------------------------
------------------------------------------------------------------------
------------------------------------------------------------------------
------------------------------------------------------------------------

------------------------------------------------------------------------
------------------------------------------------------------------------
------------------------------------------------------------------------
------------------------------------------------------------------------
------------------------------------------------------------------------
------------------------------------------------------------------------

------------------------------------------------------------------------
------------------------------------------------------------------------
------------------------------------------------------------------------
------------------------------------------------------------------------
------------------------------------------------------------------------
------------------------------------------------------------------------

------------------------------------------------------------------------
------------------------------------------------------------------------
------------------------------------------------------------------------
------------------------------------------------------------------------
------------------------------------------------------------------------
------------------------------------------------------------------------

------------------------------------------------------------------------
------------------------------------------------------------------------
------------------------------------------------------------------------
------------------------------------------------------------------------
------------------------------------------------------------------------
------------------------------------------------------------------------

------------------------------------------------------------------------
------------------------------------------------------------------------
------------------------------------------------------------------------
------------------------------------------------------------------------
------------------------------------------------------------------------
------------------------------------------------------------------------]

-

T. Holopainen

Guitar 2.

[E--------------------------------------------------------------------
B--------------------------------------------------------------------
G--------------------------------------------------------------------
D--------------------------------------------------------------------
A--5-5-5-5-5-5-5-5-5-5-5-5-5-5-5-5-----------------------------------
E------------------------------------1-1-1-1-1-1-1-1-1-1-1-1-1-1-1-1-

--------------------------------------------------------------------
--------------------------------------------------------------------
--------------------------------------------------------------------
--------------------------------------------------------------------
--------------------------------------------------------------------
--3-3-3-3-3-3-3-3-3-3-3-3-3-3-3-3---3-3-3-3-3-3-3-3-5-5-5-5-5-5-5-5-

--------------------------------------------------------------------
--------------------------------------------------------------------
--------------------------------------------------------------------
--------------------------------------------------------------------
--5-5-5-5-5-5-5-5-5-5-5-5-5-5-5-5-----------------------------------
------------------------------------1-1-1-1-1-1-1-1-1-1-1-1-1-1-1-1-

--------------------------------------------------------------------
--------------------------------------------------------------------
--------------------------------------------------------------------
--------------------------------------------------------------------
----------------------------------------------------1-1-1-1-0-0-0-0-
--3-3-3-3-3-3-3-3-3-3-3-3-3-3-3-3---3-3-3-3-3-3-3-3-----------------

---------------------------------------------------------
---------------------------------------------------------
---------------------------------------------------------
--3------------------------------------------------------
--1------------------5------------------3----------------
---------------------3------------------1----------------

----------------------------------------------------------
----------------------------------------------------------
----------------------2-----------------------------------
--5--------6----------0-----------------------------------
--3--------4-----------------------------3----------------
-----------------------------------------1----------------

----------------------------------------------------------
----------------------------------------------------------
-----------------------------------------2----------------
------------------------------2----------0----------------
--5------------------5--------0---------------------------
--3------------------3------------------------------------

-----------------------------------------------------------
-----------------------------------------------------------
-----------------------------------------------------------
-------------------------------------------------3----2----
--3------------------5------------------5--------1----0----
--1------------------3------------------3------------------

------------------------------------------------------------------
------------------------------------------------------------------
---------------------3------------------2-2-2--2--2-2--2-2--2--2--
--3------------------1------------------0-0-0--0--0-0--0-0--0--0--
--1---------------------------------------------------------------
------------------------------------------------------------------

------------------------------------------------------------------
------------------------------------------------------------------
--2-2-2--2--2-2--2-2--2--2-----------------------3----------------
--0-0-0--0--0-0--0-0--0--0----3------------------1----------------
------------------------------1-----------------------------------
------------------------------------------------------------------

----------------------------------------------------------------------------
----------------------------------------------------------------------------
----------------------------------------------------------------------------
-----------------------------------------------------------5----------------
--3--------------------------3----------5------------------3----------------
--1--------------------------1----------3-----------------------------------

-----------------------------------------------------------
-----------------------------------------------------------
--3--------------------------------------------------------
--1-------------------3------------------------------------
-----------3----------1--------3----------5----------------
-----------1-------------------1----------3----------------

-------------------------------------------------------------
-------------------------------------------------------------
--3-----------------------2----3----5------------------------
--1------------------5----0----1----3------3-----------------
---------------------3---------------------1--------3--------
----------------------------------------------------1--------

------------------------------------------------------------
------------------------------------------------------------
----------------------3--------2----------------------------
----------------------1--------0-------------------5--------
--5--------3------------------------------5--------3--------
--3--------1------------------------------3-----------------

------------------------------------------------------
------------------------------------------------------
------------------------------------------------------
--3---------------------------------------------------
--1--------3----------5-5-5-5-5-5-5-5-5-5-5-5-5-5-5-5-
-----------1------------------------------------------

--------------------------------------------------------------------
--------------------------------------------------------------------
--------------------------------------------------------------------
--------------------------------------------------------------------
--------------------------------------------------------------------
--1-1-1-1-1-1-1-1-1-1-1-1-1-1-1-1---3-3-3-3-3-3-3-3-3-3-3-3-3-3-3-3-

--------------------------------------------------------------------
--------------------------------------------------------------------
--------------------------------------------------------------------
--------------------------------------------------------------------
------------------------------------5-5-5-5-5-5-5-5-5-5-5-5-5-5-5-5-
--3-3-3-3-3-3-3-3-5-5-5-5-5-5-5-5-----------------------------------

--------------------------------------------------------------------
--------------------------------------------------------------------
--------------------------------------------------------------------
--------------------------------------------------------------------
--------------------------------------------------------------------
--1-1-1-1-1-1-1-1-1-1-1-1-1-1-1-1---3-3-3-3-3-3-3-3-3-3-3-3-3-3-3-3-

------------------------------------------------------------------------
------------------------------------------------------------------------
------------------------------------------------------------------------
------------------------------------3-----------------------------------
------------------1-1-1-1-0-0-0-0---1------------------5----------------
--3-3-3-3-3-3-3-3--------------------------------------3----------------

----------------------------------------------------------
----------------------------------------------------------
-----------------------------------------2----------------
---------------------5--------6----------0----------------
--3------------------3--------4---------------------------
--1-------------------------------------------------------

----------------------------------------------------------
----------------------------------------------------------
----------------------------------------------------------
-------------------------------------------------2--------
--3------------------5------------------5--------0--------
--1------------------3------------------3-----------------

---------------------------------------------------------
---------------------------------------------------------
--2------------------------------------------------------
--0------------------------------------------------------
---------------------3------------------5----------------
---------------------1------------------3----------------

-----------------------------------------------------------
-----------------------------------------------------------
------------------------------------------3----------------
-----------3----2------3------------------1----------------
--5--------1----0------1-----------------------------------
--3--------------------------------------------------------

---------------------------------------------------------------------------
---------------------------------------------------------------------------
--2-2-2--2--2-2--2-2--2--2----2-2-2--2--2-2--2-2--2--2---------------------
--0-0-0--0--0-0--0-0--0--0----0-0-0--0--0-0--0-0--0--0----3----------------
----------------------------------------------------------1----------------
---------------------------------------------------------------------------

----------------------------------------------------------------------------
----------------------------------------------------------------------------
--3-------------------------------------------------------------------------
--1-------------------------------------------------------------------------
---------------------3--------------------------3----------5----------------
---------------------1--------------------------1----------3----------------

-----------------------------------------------------------
-----------------------------------------------------------
---------------
Добавлено: 23.02.2014
Другие материалы по этой песне:

Страница создана 24.02.2012
http://primanota.ru/nightwish/wanderlust-chords.htm
Привет, Гость.
Предлагаем пройти революционный курс по гитаре.
Подарок от PrimaNota.Ru, забирай!