PrimaNota.ru - самый крупный в мире бесплатный архив песенных текстов, аккордов, табулатур и нот


Nightwish - The Wayfarer - аккорды и текст, видео

Регистрация Запомнить меня
Войти через:  Facebook Google Twitter Vk Yandex Mail.ru

Nightwish - The Wayfarer - аккорды и текст, видео

Печатать
Просмотров: 134
Авторы музыки: Tuomas Holopainen
Авторы текста: Tuomas Holopainen
The Wayfarer
Nightwish
----TAB STUFF----
Intro/Interlude

p = pull-off
h = hammer-on
\ = downward slide
m = palm mute

d|-----|----------------------------------|---------------------------------|
A|-----|-8-7------------------------------|---------------------------------|
F|-----|-----9-7---7--------------------9-|-7~------------------------------|
C|-12\-|---------9---7-9------------7-9---|-------------9---7~--------------|
G|-12\-|-----------------7---7-9-10-------|---------------------------------|
D|-----|----------------------------------|---------------------------------|
         1 e + a 2 e + a 3 e + a 4  e + a   1 e + a 2 e + a 3 e + a 4 e + a
         Dm                                 F               C

   (tapping)--------------------------|
d|-12p8p7p5h14p8p7p5h15p8p7p5h17p8p7p5-|---------------------------------|
A|-------------------------------------|---------------------------------|
F|-------------------------------------|---------------------------------|
C|-------------------------------------|-----------------------------7---|
G|-------------------------------------|-----------------------------5---|
D|-------------------------------------|-0-0-0---0---0-0-0---0-0-0-0-----|
   1  e + a 2  e + a 3  e + a 4  e + a   1 e + a 2 e + a 3 e + a 4 e + a 
                                         m m m   m   m m m   m m m m
   Gm                                                Dm              C

d|----------------------------------|---------------------------------|
A|-8-7------------------------------|---------------------------------|
F|-----9-7---7--------------------9-|-7~------------------------------|
C|---------9---7-9------------7-9---|-------------9---7~--------------|
G|-----------------7---7-9-10-------|---------------------------------|
D|----------------------------------|---------------------------------|
   1 e + a 2 e + a 3 e + a 4  e + a   1 e + a 2 e + a 3 e + a 4 e + a
   Dm                                 F               C

   (tapping)------------------------------|
d|-12p8p7p5h14p8p7p5h15p8p7p5h17p8p7p5-|h19------------------------------|
A|-------------------------------------|---------------------------------|
F|-------------------------------------|---------------------------------|
C|-------------------------------------|---------------------------------|
G|-------------------------------------|---------------------------------|
D|-------------------------------------|---------------------------------|
   1  e + a 2  e + a 3  e + a 4  e + a   1 e + a 2 e + a 3 e + a 4 e + a 
   Gm                Bb       C          Dm

d|---------------------------------|---------------------------------|
A|-5-4-----------------------------|---------------------------------|
F|-----6-4---4-------------------6-|-4~------------------------------|
C|---------6---4-6-----------4-6---|-------------6---4~--------------|
G|-----------------4---4-6-7-------|---------------------------------|
D|---------------------------------|---------------------------------|
   1 e + a 2 e + a 3 e + a 4 e + a   1 e + a 2 e + a 3 e + a 4 e + a
   Bm                                D               A

   (tapping)--------------------------|
d|-9p5p4p2h11p5p4p2h12p5p4p2h14p5p4p2-|---------------------------------|
A|------------------------------------|---------------------------------|
F|------------------------------------|---------------------------------|
C|------------------------------------|-----------------------------4---|
G|------------------------------------|-4-4-4---4---4-4-4---4-4-4-4-2---|
D|------------------------------------|---------------------------------|
   1 e + a 2  e + a 3  e + a 4  e + a   1 e + a 2 e + a 3 e + a 4 e + a
                                        m m m   m   m m m   m m m m
   Em                                   Bm

d|---------------------------------|---------------------------------|
A|-5-4-----------------------------|---------------------------------|
F|-----6-4---4-------------------6-|-4~------------------------------|
C|---------6---4-6-----------4-6---|-------------6---4~--------------|
G|-----------------4---4-6-7-------|---------------------------------|
D|---------------------------------|---------------------------------|
   1 e + a 2 e + a 3 e + a 4 e + a   1 e + a 2 e + a 3 e + a 4 e + a
   Bm                                D               A

   (tapping)------------------------------|
d|-9p5p4p2h11p5p4p2h12p5p4p2h14p5p4p2-|-16-------------------------------|
A|------------------------------------|----------------------------------|
F|------------------------------------|----------------------------------|
C|------------------------------------|----------------------------------|
G|------------------------------------|----------------------------------|
D|------------------------------------|----------------------------------|
   1 e + a 2  e + a 3  e + a 4  e + a   1  e + a 2 e + a 3 e + a 4 e + a
   Em               G        A          Bm

--END TAB STUFF--


ORDER: I V1 INT1 V2 C INT2 C B C FC


[INTRO]
Dm | F C | Gm       | Dm   C |
Dm | F C | Gm  Bb C | Dm     |
Bm | D A | Em       | Bm   A |
Bm | D A | Em  G  A | Bm


[VERSE 1]
A Bm            D     A         Em
I went into the wilderness with Uncle Walt
     D           A
I discovered the wild
Bm                   D     A
Learning to suck all the experience
Em                       D        A
Seeing the world through cradle's bars


[INTERLUDE 1]
Dm | F C | Gm       | Dm   C |
Dm | F C | Gm  Bb C | Dm   


[VERSE 2]
C   Bm                      D      A
The wild blessed me with an errant mind
Em                      D        A
Showing the way for the ultimate lore
  Bm                       D        A
I went around the world, beyond the wild
Em                      D     A
Finding my home from an ocean shore


[CHORUS 1]
  G
  Wayfarer, heartlander
Bm
  What if I only had
  G   Em   A     F#m Bm
  one more night to  live
  G
  Home is where the way is
Bm
  My road goes on forever
  G   Em   A      F#m Bm
  One more voyage to  go


[INTERLUDE 2]
( Bm ) | Bm A D A   | Bm | Bm    D A/C# |
  Bm   | Bm A D F#m | Bm | Bm    D   C  |
  Dm   | Dm C F C   | Dm | Dm Am F C/E  |
  Dm   | Dm C F Am  | Dm | Dm        C  |


[CHORUS 2]
  Bb7M  
  Way - farer, heartlander
Dm
  What if I only had
  Bb  Gm   C     Am Bb7M  
  one more night to live?


[BRIDGE]
Bb7M         C
Dead  to the world
 B7M          Csus4  Am
Alive for the jour - ney


[CHORUS 3]
  Gm7
  Wayfarer, heartlander
Dm
  What if I only had
  Bb  Gm   C     Am
  one more night to,
  Bb  Gm   C     Am F
  one more night to live?


[FINAL CHORUS]
  F
  Wayfarer, heartlander
Am
  What if I only had
  F   Dm   G     Em Am
  one more night to live
  F
  Home is where the way is
Am
  My road goes on forever
  F   Dm   G  Em
  One more voyage,
  F   Dm   G  Em
  One more voyage,
  F   Dm   G      Em Am G Am
  One more voyage to go
Добавлено: 18.09.2015
Другие материалы по этой песне:

Страница создана 27.02.2012
http://primanota.ru/nightwish/the-wayfarer-chords.htm
Привет, Гость.
Предлагаем пройти революционный курс по гитаре.
Подарок от PrimaNota.Ru, забирай!