PrimaNota.ru - самый крупный в мире бесплатный архив песенных текстов, аккордов, табулатур и нот


Nightwish - Sacrament Of The Wilderness - аккорды и текст, таба, видео

Регистрация Запомнить меня
Войти через:  Facebook Google Twitter Vk Yandex Mail.ru

Nightwish - Sacrament Of The Wilderness - аккорды и текст, таба, видео

Печатать
Просмотров: 313
Авторы музыки: Tuomas Holopainen, Emppu Vuorinen
Авторы текста: Tuomas Holopainen
Sacrament Of The Wilderness
Nightwish
Standard tuning (EADGBE)

Riff A:	                               dive w/bar
---------------------------------------------------
---------------------------------------------------
--------------7-----------------2-4----------------
-4-4-4-4-4----7----4-4-4-4-4----2-4--4-4-4-4-4-----
-4-4-4-4-4----5----4-4-4-4-4----0-2--4-4-4-4-4-----
-2-2-2-2-2---------2-2-2-2-2---------2-2-2-2-2--0--

Riff A:	-----------------------------------------------------
-----------------------------------------------------
-----------------------7-------------------------2-4-
-4--------------4------7--2--------------4-------2-4-
-4--------------4------5--2--------------4-------0-2-
-2-2-2-22-2-2-2-2-2-2-----4-2-2-22-2-2-2-2-2-2-2-----

-----------------------------------------------------
-----------------------------------------------------
-----------------------7-----------------------------
-4--------------4------7--4--------------4-----------
-4--------------4------5--4--------------4-----xx-xx-
-2-2-2-22-2-2-2-2-2-2-----2-2-2-22-2-2-2-2-2-2-xx-xx-

Riff B:		  2x:                      2x:
-4-2-2-2-5-2-2-2-7-2-2-2-5-2-2-2--7-5-5-5-8-5-5-5-10-5-5-5-8-5-5-5-
-------------------------------------------------------------------
-------------------------------------------------------------------
-------------------------------------------------------------------
-------------------------------------------------------------------
-------------------------------------------------------------------

-9-7-7-7-10-7-7-7-12-7-7-7-10-7-7-7-
------------------------------------
------------------------------------
------------------------------------
------------------------------------
------------------------------------

-9-10-9-7--------------------------------------------
----------10-9-7-6-7-6-------------------------------
-----------------------7-6-4-------------------------
-----------------------------7-6-4-3-4-3-------------
-----------------------------------------5-4-2-------
-----------------------------------------------5-4-2-

Riff B:	--------------------------------------------------------------
--------------------------------------------------------------
--------------------------------------------------------------
-4---------------4-----------------4-----------------------2--
-4---------------4-----------------------4-----------------2--
-2-2-2-22-2-2-22-2-2-2-22-2-2-22-2---2-2---2-2-2-2-2-2-2-2-0--

Riff C 2x:	-----------------------------------------------------------
-----------------------------------------------------------
------------------------------6-7---------------7----------
-4---------------4------------6-7---------------7----------
-4---------------4------------4-5-5-5-55-5-5-55-5-5-5-5-5--
-2-2-2-22-2-2-22-2-2-2-22-2-2------------------------------

-----------------------------------------------------------
-----------------------------------------------------------
-6-4---------------4---------------------------------------
-6-4---------------4---------------4------------2----------
-4-2-2-2-22-2-2-22-2-2-2-22-2-2-22-4------------2----------
-----------------------------------2------------0----------

Riff B
Riff C 2x

Chorus:		---------------------------------------------------------------------------
---------------------------------------------------------------------------
------------------------------7--------------------------------------------
-4----------------------------7--------------------------------------------
-4------------------2-4---2-4-5-5-5-5-5...--5h7-7-7-7-7-7--5h7-7-7-7-7-7-7-
-2-2-2-2-2...-2-4-5-----5--------------------------------------------------

----------------------------------------------------------------------------
----------------------------------------------------------------------------
------------------------------7---------------------------------------------
-4----------------------------7---------------------------------------------
-4------------------2-4---2-4-5-5-5-5-5...--7-5-4---4-----------------------
-2-2-2-2-2...-2-4-5-----5-------------------------7---7-5-4-5-4-2-0-5-4-2-0-

---------------------------------------------------------------------------
---------------------------------------------------------------------------
------------------------------7--------------------------------------------
-4----------------------------7------------------(5)~~---------------------
-4------------------2-4---2-4-5-5-5-5-5...--5h7----------------------------
-2-2-2-2-2...-2-4-5-----5--------------------------------------------------

----------------------------------------------------------------------------
----------------------------------------------------------------------------
------------------------------7---------------------------------------------
-4----------------------------7---------------------------------------------
-4------------------2-4---2-4-5-5-5-5-5...--7-5-4---4-----------------------
-2-2-2-2-2...-2-4-5-----5-------------------------7---7-5-4-5-4-2-0-5-4-2-0-

Riff D:		-----------------------------------------------------
-----------------------------------------------------
-----------------------7-------------------------2-4-
-4--------------4------7--4--------------4-------2-4-
-4--------------4------5--4--------------4-------0-2-
-2-2-2-22-2-2-2-2-2-2-----2-2-2-22-2-2-2-2-2-2-2-----

---------------------------------------------------------
---------------------------------------------------------
-----------------------7-------------------------2-2-4---
-4--------------4------7--2--------------4-----4-2-2-4-2-
-4--------------4------5--2--------------4-----4-0-0-2-2-
-2-2-2-22-2-2-2-2-2-2-----4-2-2-22-2-2-2-2-2-2-2-------0-

it ends with this:

-9-10-9-7--------------------------------------------
----------10-9-7-6-7-6-------------------------------
-----------------------7-6-4-------------------------
-----------------------------7-6-4-3-4-3-------------
-----------------------------------------5-4-2-------
-----------------------------------------------5-4-2-

Riff E 2x:	( there is some harmonic here)
-----------------------------
-----------------------------
-----------------------------
-7---------6-7-----7--9-7-11-
-9-9-9-9-9-7-9-9-9-9-11-9-12-
----------------------------

---------------------------------------
---------------------------------------
-------------------------------9-11-14-
-7---------6-7---------9-11-12---------
-9-9-9-9-9-7-9-9-11-12-----------------
---------------------------------------

Riff F 2x:	------------------------------
------------------------------
------2----7---------2----4---
-4----2----7----4----2----4---
-4----0----5----4----0----2---
-2--------------2-------------

Riff F:	-------------------------
-------------------------
-------------------------
----------------2--2--2--
-4-4-4---4-4-4--0--0--0--
-2-2-2---2-2-2-----------

Then comes the keyboard solo
during that guitar plays Riff E 2 times.

Play only the first two patterns of the chorus
and then:
---------------
---------------
-2---------7---
-2----3----7---
-0----3----5---
------1--------

then the end is just some fast lick from the Riff B scale.

h - hammer on
p - pull off
b - bend string up
r - release bend
/ - slide up
\ - slide down
~ - vibrato
t - right hand tap
x - play 'note' with heavy damping
(5)- harmonics

-

Text:		Naked in midwinter magic
Lies an angel in the snow
- The frozen ficure crossed by tracks of wolves
An encounter, symbolic, yet truthfull
With a hungry choir of woods
An agreement immemorial to be born

Dulcet elvenharps from a dryad forest
Accompany all charming tunes
of a sacrament by a campfire
A promise between the tameless
and the one with a tool
Tonight the journey from cave begins

I want to hunt with the tameless
I want to learn the wisdom of mountains afar
we will honor the angel in the snow
We will make the streams for our children flow

Wrapped in furs beneath the nothern lights
From my cave I watch the land untamed
And wonder is some becoming season
will make the angel melt in shame

-

Перевод:	Таинство Пустошей.

Обнаженный в зимнем чародействе,
И лежащий ангел на снегу,
Волки ходят, и в голодном лиходействе,
Бег сужают свой все по кругу.

Встреча - в ней есть символ, полный назначенья,
И голодный хор сиих лесов,
В этом - начертание, стеченье,
И согласие - родиться средь стволов.

Но польются благозвучные эльфийские напевы,
Из глубины леса, в коем и дриады ведь живут,
Таинство они обхватят словно в хороводах девы,
И с костром те песни заживут.

Тебе дано мистическое предназначенье,
Вне времени, вне времени оно,
И ты один с сиим знаменьем,
Сегодня ночью начало путешествию дано.

И хочу начать поиски вне времени,
Я хочу учится мудрости у горных звезд,
Мы приветствуем ангела снежного племени,
Мы создадим поток в котором дети обретут надежды.

Облаченный в меха, под сиянием северных звезд,
Из своей пещеры я созерцаю землю, которая вне времени лежит,
И я удивляюсь - подобно потоку из слез,
Ангел снежный с весною златистым бежит.

-

Перевод:	"Таинство пустоши"

Обнажённый волшебством зимы
Ангел на снегу лежит -
Следы волков вокруг холодного тела.
Столкновение символично, правдиво.
Под хор голодный рощ
Незапамятное соглашение рождено.

Нежные эльфийские арфы из леса дриад
Сопровождают этот милый мотив,
Причастие огнём на привале.
Соглашение между непокорёнными
И тем, у кого есть инструмент.
Сегодня ночью начнётся путешествие из пещеры.

Хочу охотится с непокорёнными,
Хочу научится мудрости далёких гор.
Мы окажем честь ангелу на снегу,
Мы пустим потоки для наших детей.

В шерстяных шалях под северным сиянием
Из своей пещеры я наблюдал за свободной землёй,
Это чудо, становясь временем года,
Заставит ангела растаять от стыда.

-

Tuomas H.

Emppu (Rhythm Guitar)

[E-----------------------------------------------------------------
B-----------------------------------------------------------------
G---------------------------------7/------------------------------
D--4-4-4-4-4----------------------7/---------4-4-4-4-4------------
A--4-4-4-4-4----------------------5/---------4-4-4-4-4------------
E--2-2-2-2-2---------------------------------2-2-2-2-2------------

--------------------------------------------------------------
--------------------------------------------------------------
-------------2----4----------------------------------7/-------
----------4--2----4----4-4-4-4-----------------------7/-------
----------4--0----2----4-4-4-4-----------------------5/-------
----------2------------2-2-2-2--------------------------------

---------------------------------------------------------------------
---------------------------------------------------------------------
----------------------------------2----4-----------------------------
--4-4-4-4-------------------------2----4----4----4--4--4-4-4--4--4-4-
--4-4-4-4-------------------------0----2----4----4--4--4-4-4--4--4-4-
--2-2-2-2-----------------------------------2----2--2--2-2-2--2--2-2-

---------------------------------------------------------------------------
---------------------------------------------------------------------------
--------------7/---------------------------------------------------2----4--
--4----4--4-4-7/---------4----4--4--4-4-4--4--4-4---4----4--4-4-4--2----4--
--4----4--4-4-5/---------4----4--4--4-4-4--4--4-4---4----4--4-4-4--0----2--
--2----2--2-2------------2----2--2--2-2-2--2--2-2---2----2--2-2-2----------

-----------------------------------------------------------------------------
-----------------------------------------------------------------------------
-----------------------------------------7/----------------------------------
--4----4--4--4-4-4--4--4-4---4----4--4-4-7/---------4----4--4--4-4-4--4--4-4-
--4----4--4--4-4-4--4--4-4---4----4--4-4-5/---------4----4--4--4-4-4--4--4-4-
--2----2--2--2-2-2--2--2-2---2----2--2-2------------2----2--2--2-2-2--2--2-2-

---------------------------------------------------------------------------
---------------------------------------------------------------------------
----------------------------------------------------------2----------------
--4------------------4------------------------------------2----------------
--4------------------4------------------------------------0----------------
--2------------------2-----------------------------------------------------

-------------------------------------------------------------------------
-------------------------------------------------------------------------
--------------------4----------------------------------------------------
--------------------4----------------------------------------------------
--------------------2----------------------------------------------------
-------------------------------------------------------------------------

------------------------------------------------------
------------------------------------------------------
------------------------------------------------------
--4--------------------------4------------------------
--4--------------------------4------------------------
--2----2--2--2-2-2--2--2-2---2----2--2--2-2-2--2--2-2-

---------------------------------------------------
---------------------------------------------------
---------------------------------------------------
-----4----------------------------------------2----
--------------4--------4----------------------2----
--2-----2--2-----2--2--2----2--2--2--2--2--2--0----

------------------------------------------------------
------------------------------------------------------
---------------------------------------------------6--
--4----4--4--4-4-4--4--4-4---4----4--4-4-4-4-4--4--6--
--4----4--4--4-4-4--4--4-4---4----4--4-4-4-4-4--4--4--
--2----2--2--2-2-2--2--2-2---2----2--2-2-2-2-2--2-----

-----------------------------------------------------
-----------------------------------------------------
--7----7--7--7-7-7--7--7-7---7----7--7-7-7--7-7-6----
--7----7--7--7-7-7--7--7-7---7----7--7-7-7--7-7-6----
--5----5--5--5-5-5--5--5-5---5----5--5-5-5--5-5-4----
-----------------------------------------------------

-------------------------------------------------------------------------
-------------------------------------------------------------------------
--4----4--4--4-4-4--4--4-4---4----4--4--4-4-4--4--4-4--------------------
--4----4--4--4-4-4--4--4-4---4----4--4--4-4-4--4--4-4---4----------------
--2----2--2--2-2-2--2--2-2---2----2--2--2-2-2--2--2-2---4----------------
--------------------------------------------------------2----------------

-------------------------------------------------------------------------
-------------------------------------------------------------------------
----------------------------------------------------------------------6--
--2------------------4----4--4--4-4-4--4--4-4---4----4--4-4-4-4-4--4--6--
--2------------------4----4--4--4-4-4--4--4-4---4----4--4-4-4-4-4--4--4--
--0------------------2----2--2--2-2-2--2--2-2---2----2--2-2-2-2-2--2-----

-----------------------------------------------------
-----------------------------------------------------
--7----7--7--7-7-7--7--7-7---7----7--7-7-7--7-7-6----
--7----7--7--7-7-7--7--7-7---7----7--7-7-7--7-7-6----
--5----5--5--5-5-5--5--5-5---5----5--5-5-5--5-5-4----
-----------------------------------------------------

-------------------------------------------------------------------------
-------------------------------------------------------------------------
--4----4--4--4-4-4--4--4-4---4----4--4--4-4-4--4--4-4--------------------
--4----4--4--4-4-4--4--4-4---4----4--4--4-4-4--4--4-4---4----------------
--2----2--2--2-2-2--2--2-2---2----2--2--2-2-2--2--2-2---4----------------
--------------------------------------------------------2----------------

---------------------------------------------------------------------------
---------------------------------------------------------------------------
----------------------------------------------------------2----------------
--2------------------4------------------------------------2----------------
--2------------------4------------------------------------0----------------
--0------------------2-----------------------------------------------------

-----------------------------------------------------------------
-----------------------------------------------------------------
--------------------4--------------------------------------------
--------------------4--------------------------------------------
--------------------2--------------------------------------------
-----------------------------------------------------------------

------------------------------------------------------
------------------------------------------------------
---------------------------------------------------6--
--4----4--4--4-4-4--4--4-4---4----4--4-4-4-4-4--4--6--
--4----4--4--4-4-4--4--4-4---4----4--4-4-4-4-4--4--4--
--2----2--2--2-2-2--2--2-2---2----2--2-2-2-2-2--2-----

-----------------------------------------------------
-----------------------------------------------------
--7----7--7--7-7-7--7--7-7---7----7--7-7-7--7-7-6----
--7----7--7--7-7-7--7--7-7---7----7--7-7-7--7-7-6----
--5----5--5--5-5-5--5--5-5---5----5--5-5-5--5-5-4----
-----------------------------------------------------

-------------------------------------------------------------------------
-------------------------------------------------------------------------
--4----4--4--4-4-4--4--4-4---4----4--4--4-4-4--4--4-4--------------------
--4----4--4--4-4-4--4--4-4---4----4--4--4-4-4--4--4-4---4----------------
--2----2--2--2-2-2--2--2-2---2----2--2--2-2-2--2--2-2---4----------------
--------------------------------------------------------2----------------

-------------------------------------------------------------------------
-------------------------------------------------------------------------
----------------------------------------------------------------------6--
--2------------------4----4--4--4-4-4--4--4-4---4----4--4-4-4-4-4--4--6--
--2------------------4----4--4--4-4-4--4--4-4---4----4--4-4-4-4-4--4--4--
--0------------------2----2--2--2-2-2--2--2-2---2----2--2-2-2-2-2--2-----

-----------------------------------------------------
-----------------------------------------------------
--7----7--7--7-7-7--7--7-7---7----7--7-7-7--7-7-6----
--7----7--7--7-7-7--7--7-7---7----7--7-7-7--7-7-6----
--5----5--5--5-5-5--5--5-5---5----5--5-5-5--5-5-4----
-----------------------------------------------------

-------------------------------------------------------------------------
-------------------------------------------------------------------------
--4----4--4--4-4-4--4--4-4---4----4--4--4-4-4--4--4-4--------------------
--4----4--4--4-4-4--4--4-4---4----4--4--4-4-4--4--4-4---4----------------
--2----2--2--2-2-2--2--2-2---2----2--2--2-2-2--2--2-2---4----------------
--------------------------------------------------------2----------------

-----------------------------------------------------
-----------------------------------------------------
-----------------------------------------------------
--2--------------------------------------------------
--2--------------------------------------------------
--0------------------2-2-2-2-2-2-2-2-2-2-2-2-2-2-2-2-

--------------------------------------------------------------------
--------------------------------------------------------------------
--------------------------------------------------------------------
--------------------------------------------------------------------
----------------------0-2---0-2-4---5-5-5-5-5-5-5-5-5-5-5-5-5-5-5-5-
--2-2-2-2-2-2-2-2-2-4-----4-----------------------------------------

--------------------------------------------------------------------
--------------------------------------------------------------------
--------------------------------------------------------------------
--------------------------------------------------------------------
--5h7-7-7-7-7-7-7-5h7-7-7-7-7-7-7-----------------------------------
------------------------------------2-2-2-2-2-2-2-2-2-2-2-2-2-2-2-2-

--------------------------------------------------------------------
--------------------------------------------------------------------
--------------------------------------------------------------------
--------------------------------------------------------------------
----------------------0-2---0-2-4---5-5-5-5-5-5-5-5-5-5-5-5-5-5-5-5-
--2-2-2-2-2-2-2-2-2-4-----4-----------------------------------------

--------------------------------------------------------------------
--------------------------------------------------------------------
--------------------------------------------------------------------
--------------------------------------------------------------------
--7-5-4---5-4-----4-------------------------------------------------
--------7-----7-5---7-5-4-7-5-4-2---2-2-2-2-2-2-2-2-2-2-2-2-2-2-2-2-

--------------------------------------------------------------------
--------------------------------------------------------------------
--------------------------------------------------------------------
--------------------------------------------------------------------
----------------------0-2---0-2-4---5-5-5-5-5-5-5-5-5-5-5-5-5-5-5-5-
--2-2-2-2-2-2-2-2-2-4-----4-----------------------------------------

--------------------------------------------------------------------
--------------------------------------------------------------------
--------------------------------------------------------------------
--------------------------------------------------------------------
--5h7-7-7-7-7-7-7-5h7-7-7-7-7-7-7-----------------------------------
------------------------------------2-2-2-2-2-2-2-2-2-2-2-2-2-2-2-2-

--------------------------------------------------------------------
--------------------------------------------------------------------
--------------------------------------------------------------------
--------------------------------------------------------------------
----------------------0-2---0-2-4---5-5-5-5-5-5-5-5-5-5-5-5-5-5-5-5-
--2-2-2-2-2-2-2-2-2-4-----4-----------------------------------------

-------------------------------------------------------------
-------------------------------------------------------------
-------------------------------------------------------------
------------------------------------4----4--4--4-4-4--4--4-4-
--7-5-4---5-4-----4-----------------4----4--4--4-4-4--4--4-4-
--------7-----7-5---7-5-4-7-5-4-2---2----2--2--2-2-2--2--2-2-

---------------------------------------------------------------------------
---------------------------------------------------------------------------
--------------7/---------------------------------------------------2----4--
--4----4--4-4-7/---------4----4--4--4-4-4--4--4-4---4----4--4-4-4--2----4--
--4----4--4-4-5/---------4----4--4--4-4-4--4--4-4---4----4--4-4-4--0----2--
--2----2--2-2------------2----2--2--2-2-2--2--2-2---2----2--2-2-2----------

-----------------------------------------------------------------------------
-----------------------------------------------------------------------------
-----------------------------------------7/----------------------------------
--4----4--4--4-4-4--4--4-4---4----4--4-4-7/---------4----4--4--4-4-4--4--4-4-
--4----4--4--4-4-4--4--4-4---4----4--4-4-5/---------4----4--4--4-4-4--4--4-4-
--2----2--2--2-2-2--2--2-2---2----2--2-2------------2----2--2--2-2-2--2--2-2-

---------------------------------------------------------------------------
---------------------------------------------------------------------------
-----------------2----4----------------------------------------2---2---2---
--4----4--4-4-4--2----4----4-4-4----4-4-4----4-4-----4-4-4-----2---2---2---
--4----4--4-4-4--0----2----4-4-4----4-4-4----4-4-----4-4-4-----0---0---0---
--2----2--2-2-2------------2-2-2----2-2-2----2-2-----2-2-2-----------------

----------------------------------------------------------------------------
----------------------------------------------------------------------------
--------------------------------------2---2---2-----------------------------
--4-4-4----4-4-4----4-4-----4-4-4-----2---2---2-----4-4-4----4-4-4----4-4---
--4-4-4----4-4-4----4-4-----4-4-4-----0---0---0-----4-4-4----4-4-4----4-4---
--2-2-2----2-2-2----2-2-----2-2-2-------------------2-2-2----2-2-2----2-2---

--------------------------------------------------------------------------
--------------------------------------------------------------------------
------------2---2---2-----------------------------------------2---2---2---
--4-4-4-----2---2---2-----4-4-4----4-4-4----4-4-----4-4-4-----2---2---2---
--4-4-4-----0---0---0-----4-4-4----4-4-4----4-4-----4-4-4-----0---0---0---
--2-2-2-------------------2-2-2----2-2-2----2-2-----2-2-2-----------------

--------------------------------------------------------------------
--------------------------------------------------------------------
--------------------------------------------------------------------
--------------------------------------------------------------------
--------------------------------------------------------------------
--2-2-2-2-2-2-2-2-2-2-2-2-2-2-2-2---2-2-2-2-2-2-2-2-2-2-2-2-2-2-2-2-

--------------------------------------------------------------------
--------------------------------------------------------------------
--------------------------------------------------------------------
--------------------------------------------------------------------
--------------------------------------------------------------------
--2-2-2-2-2-2-2-2-2-2-2-2-2-2-2-2---2-2-2-2-2-2-2-2-2-2-2-2-2-2-2-2-

--------------------------------------------------------------------
--------------------------------------------------------------------
--------------------------------------------------------------------
--------------------------------------------------------------------
--------------------------------------------------------------------
--2-2-2-2-2-2-2-2-2-2-2-2-2-2-2-2---2-2-2-2-2-2-2-2-2-2-2-2-2-2-2-2-

--------------------------------------------------------------------
--------------------------------------------------------------------
--------------------------------------------------------------------
--------------------------------------------------------------------
--------------------------------------------------------------------
--2-2-2-2-2-2-2-2-2-2-2-2-2-2-2-2---2-2-2-2-2-2-2-2-2-2-2-2-2-2-2-2-

----------------------------------------------------------
----------------------------------------------------------
------------------------------7---------------------------
--4------------------2--------7----------4----------------
--4------------------2--------5----------4----------------
--2------------------0-------------------2----------------

-----------------------------------------------------------
-----------------------------------------------------------
--2--------4--------------------------------------7--------
--2--------4----------4------------------2--------7--------
--0--------2----------4------------------2--------5--------
----------------------2------------------0-----------------

-----------------------------------------------------------------
-----------------------------------------------------------------
---------------------2--------4----------------------------------
--4------------------2--------4----------4-4-4----4-4-4----4-4---
--4------------------0--------2----------4-4-4----4-4-4----4-4---
--2--------------------------------------2-2-2----2-2-2----2-2---

----------------------------------------------------------
----------------------------------------------------------
------------2---2---2-------------------------------------
--4-4-4-----2---2---2-------------------------------------
--4-4-4-----0---0---0-------------------------------------
--2-2-2-------------------2-2-2-2-2-2-2-2-2-2-2-2-2-2-2-2-

--------------------------------------------------------------------
--------------------------------------------------------------------
--------------------------------------------------------------------
--------------------------------------------------------------------
--------------------------------------------------------------------
--2-2-2-2-2-2-2-2-2-2-2-2-2-2-2-2---2-2-2-2-2-2-2-2-2-2-2-2-2-2-2-2-

--------------------------------------------------------------------
--------------------------------------------------------------------
--------------------------------------------------------------------
--------------------------------------------------------------------
--------------------------------------------------------------------
--2-2-2-2-2-2-2-2-2-2-2-2-2-2-2-2---2-2-2-2-2-2-2-2-2-2-2-2-2-2-2-2-

--------------------------------------------------------------------
--------------------------------------------------------------------
--------------------------------------------------------------------
--------------------------------------------------------------------
--------------------------------------------------------------------
--2-2-2-2-2-2-2-2-2-2-2-2-2-2-2-2---2-2-2-2-2-2-2-2-2-2-2-2-2-2-2-2-

--------------------------------------------------------------------
--------------------------------------------------------------------
--------------------------------------------------------------------
--------------------------------------------------------------------
--------------------------------------------------------------------
--2-2-2-2-2-2-2-2-2-2-2-2-2-2-2-2---2-2-2-2-2-2-2-2-2-2-2-2-2-2-2-2-

--------------------------------------------------------------------
--------------------------------------------------------------------
--------------------------------------------------------------------
--------------------------------------------------------------------
----------------------0-2---0-2-4---5-5-5-5-5-5-5-5-5-5-5-5-5-5-5-5-
--2-2-2-2-2-2-2-2-2-4-----4-----------------------------------------

--------------------------------------------------------------------
--------------------------------------------------------------------
--------------------------------------------------------------------
--------------------------------------------------------------------
--5h7-7-7-7-7-7-7-5h7-7-7-7-7-7-7-----------------------------------
------------------------------------2-2-2-2-2-2-2-2-2-2-2-2-2-2-2-2-

--------------------------------------------------------------------
--------------------------------------------------------------------
--------------------------------------------------------------------
--------------------------------------------------------------------
----------------------0-2---0-2-4---5-5-5-5-5-5-5-5-5-5-5-5-5-5-5-5-
--2-2-2-2-2-2-2-2-2-4-----4-----------------------------------------

------------------------------------------------------------------------
------------------------------------------------------------------------
------------------------------------2------------------2----------------
------------------------------------2------------------2----------------
--7-5-4---5-4-----4-----------------0------------------0----------------
--------7-----7-5---7-5-4-7-5-4-2---------------------------------------

----------------------------------------------------------------------------
----------------------------------------------------------------------------
----------------------------------------2------------------2----------------
--3------------------5------------------2------------------2----------------
--3------------------5------------------0------------------0----------------
--1------------------3------------------------------------------------------

----------------------------------------------------------------------------
----------------------------------------------------------------------------
----------------------------------------2------------------2----------------
--3------------------5------------------2------------------2----------------
--3------------------5------------------0------------------0----------------
--1------------------3------------------------------------------------------

----------------------------------------------------------------------------
----------------------------------------------------------------------------
----------------------------------------2------------------2----------------
--3------------------5------------------2------------------2----------------
--3------------------5------------------0------------------0----------------
--1------------------3------------------------------------------------------

----------------------------------------------------------------------------
----------------------------------------------------------------------------
----------------------------------------2------------------------------2----
--3------------------5------------------2------------------------------2----
--3------------------5------------------0------------------------------0----
--1------------------3------------------------------------------------------

------------------------------------
------------------------------------
------------------------------------
------------------------------------
------------------------------------
------------------------------------]

-

Tuomas H.

Sammi (Bass Guitar)

[G-----------------------------------------------------------------
D---------------------------------0-------------------------------
A-----------------------------------------------------------------
E--2-2-2-2-2---------------------------------2-2-2-2-2------------

--------------------------------------------------------------
-----------------------------------------------------0--------
------------0----2--------------------------------------------
----------------------2-2-2-2-2-------------------------------

----------------------------------------------------------------------
----------------------------------------------------------------------
-----------------------------------0----2-----------------------------
--2-2-2-2-2----------------------------------2----2--2--2-2-2-2-2--2--

--------------------------------------------------------------------------
-------------0----0-------------------------------------------------------
------------------------------------------------------------------0----2--
--2----2--2--------------2----2--2--2-2-2-2-2--2----2----2--2--2----------

-----------------------------------------------------------------------------
----------------------------------------0----0-------------------------------
-----------------------------------------------------------------------------
--2----2--2--2-2-2-2-2--2----2----2--2--------------2----2--2--2-2-2-2-2--2--

-----------------------------------------------------
-----------------------------------------------------
-----------------------------------------------------
--2------------------2-2-2-2-2-2-2-2-2-2-2-2-2-2-2-2-

--------------------------------------------------------------------
--------------------------------------------------------------------
------------------------------------0-0-0-0-0-0-0-0-0-0-0-0-0-0-0-0-
--2-2-2-2-2-2-2-2-2-2-2-2-2-2-2-2-----------------------------------

--------------------------------------------------------------------
--------------------------------------------------------------------
--0-0-0-0-0-0-0-0-0-0-0-0-0-0-0-0---2-2-2-2-2-2-2-2-2-2-2-2-2-2-2-2-
--------------------------------------------------------------------

------------------------------------------------------------
------------------------------------------------------------
--2--------4------------------------------------------------
------------------0------0----0--2--------------------------

-------------------------------------------------------
-------------------------------------------------------
-------------------------------------------------------
--------------------------------------------------0----

------------------------------------------------------
------------------------------------------------------
---------------------------------------------------4--
--2----2--2--2-2-2--2--2-2---2----2--2-2-2-2-2--2-----

-----------------------------------------------------
--0----0--0--0-0-0--0--0-0---0----0--0-0-0--0-0------
------------------------------------------------4----
-----------------------------------------------------

------------------------------------------------------
------------------------------------------------------
--2----2--2--2-2-2--2--2-2---2----2--2--2-2-2--2--2-2-
------------------------------------------------------

-------------------------------------------------------------------------
-------------------------------------------------------------------------
-------------------------------------------------------------------------
--2--2--2--2--2--2--2--2----0------------0------2----2--2--2-2-2--2--2-2-

------------------------------------------------------
-----------------------------0----0--0--0-0-0--0--0-0-
------------------------4-----------------------------
--2----2--2-2-2-2-2--2--------------------------------

-----------------------------------------------------
--0----0--0-0-0--0-0---------------------------------
---------------------4------2----2--2--2-2-2--2--2-2-
-----------------------------------------------------

------------------------------------------------------------------------
------------------------------------------------------------------------
--2----2--2--2-2-2--2--2-2----------------------------------------------
-----------------------------2--2--2--2--2--2--2--2----0----------------

--------------------------------------------------------------------
--------------------------------------------------------------------
--------------------------------------------------------------------
--2-2-2-2-2-2-2-2-2-2-2-2-2-2-2-2---2-2-2-2-2-2-2-2-2-2-2-2-2-2-2-2-

--------------------------------------------------------------------
--------------------------------------------------------------------
--0-0-0-0-0-0-0-0-0-0-0-0-0-0-0-0---0-0-0-0-0-0-0-0-0-0-0-0-0-0-0-0-
--------------------------------------------------------------------

-------------------------------------------------------------------
-------------------------------------------------------------------
--2-2-2-2-2-2-2-2-2-2-2-2-2-2-2-2---2--------4---------------------
----------------------------------------------------0------0----0--

------------------------------------------------------
------------------------------------------------------
---------------------------------------------------4--
--2----2--2--2-2-2--2--2-2---2----2--2-2-2-2-2--2-----

-----------------------------------------------------
--0----0--0--0-0-0--0--0-0---0----0--0-0-0--0-0------
------------------------------------------------4----
-----------------------------------------------------

------------------------------------------------------
------------------------------------------------------
--2----2--2--2-2-2--2--2-2---2----2--2--2-2-2--2--2-2-
------------------------------------------------------

------------------------------------------------------------------------
------------------------------------------------------------------------
------------------------------------------------------------------------
--2--2--2--2--2--2--2--2----0------------------2----2--2--2-2-2--2--2-2-

------------------------------------------------------
-----------------------------0----0--0--0-0-0--0--0-0-
------------------------4-----------------------------
--2----2--2-2-2-2-2--2--------------------------------

-----------------------------------------------------
--0----0--0-0-0--0-0---------------------------------
---------------------4------2----2--2--2-2-2--2--2-2-
-----------------------------------------------------

------------------------------------------------------------------------
------------------------------------------------------------------------
--2----2--2--2-2-2--2--2-2----------------------------------------------
-----------------------------2--2--2--2--2--2--2--2----0----------------

--------------------------------------------------------------------
--------------------------------------------------------------------
--------------------------------------------------------0-2---0-2-4-
--2-2-2-2-2-2-2-2-2-2-2-2-2-2-2-2---2-2-2-2-2-2-2-2-2-4-----4-------

--------------------------------------------------------------------
--0-0-0-0-0-0-0-0-0-0-0-0-0-0-0-0---2-2-2-2-2-2-2-2-2-2-2-2-2-2-2-2-
--------------------------------------------------------------------
--------------------------------------------------------------------

--------------------------------------------------------------------
--------------------------------------------------------------------
--------------------------------------------------------0-2---0-2-4-
--2-2-2-2-2-2-2-2-2-2-2-2-2-2-2-2---2-2-2-2-2-2-2-2-2-4-----4-------

--------------------------------------------------------------------
--0-0-0-0-0-0-0-0-0-0-0-0-0-0-0-0---2-0-----0-----------------------
----------------------------------------4-2---4-2-0-4-2-0---2-0-----
----------------------------------------------------------4-----4-2-

--------------------------------------------------------------------
--------------------------------------------------------------------
--------------------------------------------------------0-2---0-2-4-
--2-2-2-2-2-2-2-2-2-2-2-2-2-2-2-2---2-2-2-2-2-2-2-2-2-4-----4-------

--------------------------------------------------------------------
--0-0-0-0-0-0-0-0-0-0-0-0-0-0-0-0---2-2-2-2-2-2-2-2-2-2-2-2-2-2-2-2-
--------------------------------------------------------------------
--------------------------------------------------------------------

--------------------------------------------------------------------
--------------------------------------------------------------------
--------------------------------------------------------0-2---0-2-4-
--2-2-2-2-2-2-2-2-2-2-2-2-2-2-2-2---2-2-2-2-2-2-2-2-2-4-----4-------

--------------------------------------------------------------------
--0-0-0-0-0-0-0-0-0-0-0-0-0-0-0-0---2-0-----0-----------------------
----------------------------------------4-2---4-2-0-4-2-0---2-0-----
----------------------------------------------------------4-----4-2-

-----------------------------------------------------------------------------
----------------------------------------0----0-------------------------------
-----------------------------------------------------------------------------
--2----2--2--2-2-2-2-2--2----2----2--2--------------2----2--2--2-2-2-2-2--2--

--------------------------------------------------------------------------
----------------------------------------------------------------0----0----
----------------0----2----------------------------------------------------
--2----2--2--2------------2----2--2--2-2-2-2-2--2----2----2--2------------

--------------------------------------------------------------------------
--------------------------------------------------------------------------
----------------------------------------0----2----------------------------
--2----2--2--2-2-2-2-2--2----2--------------------2-2-2----2-2-2----2-2---

----------------------------------------------------------------------------
----------------------------------------------------------------------------
-------------0---0---0------------------------------------------0---0---0---
--2-2-2---0----------------2-2-2----2-2-2----2-2-----2-2-2---0--------------

-----------------------------------------------------------------------------
-----------------------------------------------------------------------------
---------------------------------------0---0---0-----------------------------
--2-2-2----2-2-2----2-2-----2-2-2---0----------------2-2-2----2-2-2----2-2---

-----------------------------------------------------------
-----------------------------------------------------------
-------------0---0---0-------------------------------------
--2-2-2---0----------------2-2-2-2-2-2-2-2-2-2-2-2-2-2-2-2-

--------------------------------------------------------------------
--------------------------------------------------------------------
--------------------------------------------------------------------
--2-2-2-2-2-2-2-2-2-2-2-2-2-2-2-2---2-2-2-2-2-2-2-2-2-2-2-2-2-2-2-2-

--------------------------------------------------------------------
--------------------------------------------------------------------
--------------------------------------------------------------------
--2-2-2-2-2-2-2-2-2-2-2-2-2-2-2-2---2-2-2-2-2-2-2-2-2-2-2-2-2-2-2-2-

--------------------------------------------------------------------
--------------------------------------------------------------------
--------------------------------------------------------------------
--2-2-2-2-2-2-2-2-2-2-2-2-2-2-2-2---2-2-2-2-2-2-2-2-2-2-2-2-2-2-2-2-

------------------------------------------------------------
------------------------------------------------------------
------------------------------------------------------------
--2-2-2-2-2-2-2-2-2-2-2-2-2-2-2-2---2--2--2--2--2--2--2--2--

----------------------------------------------------
--2--2--2--2--0--0--0--0----------------------------
----------------------------------------------------
----------------------------2--2--2--2--2--2--2--2--

----------------------------------------------------
----------------------------------------------------
--0--0--0--0--2--2--2--2----------------------------
----------------------------2--2--2--2--2--2--2--2--

----------------------------------------------------
--2--2--2--2--0--0--0--0----------------------------
----------------------------------------------------
----------------------------2--2--2--2--2--2--2--2--

-----------------------------------------------------------------------------
-----------------------------------------------------------------------------
--0--0--0--0--2--2--2--2-----------------------------------------0---0---0---
----------------------------2-2-2----2-2-2----2-2-----2-2-2---0--------------

--------------------------------------------------------------------
--------------------------------------------------------------------
--------------------------------------------------------------------
--2-2-2-2-2-2-2-2-2-2-2-2-2-2-2-2---2-2-2-2-2-2-2-2-2-2-2-2-2-2-2-2-

--------------------------------------------------------------------
--------------------------------------------------------------------
--------------------------------------------------------------------
--2-2-2-2-2-2-2-2-2-2-2-2-2-2-2-2---2-2-2-2-2-2-2-2-2-2-2-2-2-2-2-2-

--------------------------------------------------------------------
--------------------------------------------------------------------
--------------------------------------------------------------------
--2-2-2-2-2-2-2-2-2-2-2-2-2-2-2-2---2-2-2-2-2-2-2-2-2-2-2-2-2-2-2-2-

--------------------------------------------------------------------
--------------------------------------------------------------------
--------------------------------------------------------------------
--2-2-2-2-2-2-2-2-2-2-2-2-2-2-2-2---2-2-2-2-2-2-2-2-2-2-2-2-2-2-2-2-

--------------------------------------------------------------------
--------------------------------------------------------------------
--------------------------------------------------------0-2---0-2-4-
--2-2-2-2-2-2-2-2-2-2-2-2-2-2-2-2---2-2-2-2-2-2-2-2-2-4-----4-------

--------------------------------------------------------------------
--0-0-0-0-0-0-0-0-0-0-0-0-0-0-0-0---2-2-2-2-2-2-2-2-2-2-2-2-2-2-2-2-
--------------------------------------------------------------------
--------------------------------------------------------------------

--------------------------------------------------------------------
--------------------------------------------------------------------
--------------------------------------------------------0-2---0-2-4-
--2-2-2-2-2-2-2-2-2-2-2-2-2-2-2-2---2-2-2-2-2-2-2-2-2-4-----4-------

--------------------------------------------------------------------
--0-0-0-0-0-0-0-0-0-0-0-0-0-0-0-0---2-0-----0-----------------------
----------------------------------------4-2---4-2-0-4-2-0---2-0-----
----------------------------------------------------------4-----4-2-

--------------------------------------------------------------------
----------------------------------------------------------0-----0-2-
--0-0-0-0-0-0-0-0-0-0-0-0-0-0-0-0---0-0-0-0-0-0-0-0-0-2-3---2-3-----
--------------------------------------------------------------------

------------------------------------0-0-0-0-0-0-0-0-0-0-0-0-0-0-0-0-
--3-3-3-3-3-3-3-3-3-3-3-3-3-3-3-3-----------------------------------
--------------------------------------------------------------------
--------------------------------------------------------------------

--------------------------------------------------------------------
----------------------------------------------------------0-----0-2-
--0-0-0-0-0-0-0-0-0-0-0-0-0-0-0-0---0-0-0-0-0-0-0-0-0-2-3---2-3-----
--------------------------------------------------------------------

------------------------------------0-------------------------------
--3-3-3-3-3-3-3-3-3-3-3-3-3-3-3-3-----3-2-0-3-2-0---2-0-----0-------
--------------------------------------------------3-----3-2---3-2-0-
--------------------------------------------------------------------

--------------------------------------------------------------------
----------------------------------------------------------0-----0-2-
--0-0-0-0-0-0-0-0-0-0-0-0-0-0-0-0---0-0-0-0-0-0-0-0-0-2-3---2-3-----
--------------------------------------------------------------------

------------------------------------0-0-0-0-0-0-0-0-0-0-0-0-0-0-0-0-
--3-3-3-3-3-3-3-3-3-3-3-3-3-3-3-3-----------------------------------
--------------------------------------------------------------------
--------------------------------------------------------------------

--------------------------------------------------------------------
----------------------------------------------------------0-----0-2-
--0-0-0-0-0-0-0-0-0-0-0-0-0-0-0-0---0-0-0-0-0-0-0-0-0-2-3---2-3-----
--------------------------------------------------------------------

------------------------------------0-------------------------------
--3-3-3-3-3-3-3-3-3-3-3-3-3-3-3-3-----3-2-0-3-2-0---2-0-----0-------
--------------------------------------------------3-----3-2---3-2-0-
--------------------------------------------------------------------

--------------------------------------------------------------------------
--------------------------------------------------------------------------
--0------------------------------0----------------------------------------
--------------------------------------------------------------------------]

-

Tuomas H.

Emppu (Lead Guitar)

[E------------------------------------------------------------------------
B------------------------------------------------------------------------
G------------------------------------------------------------------------
D------------------------------------------------------------------------
A------------------------------------------------------------------------
E------------------------------------------------------------------------

------------------------------------------------------------------------
------------------------------------------------------------------------
------------------------------------------------------------------------
------------------------------------------------------------------------
------------------------------------------------------------------------
------------------------------------------------------------------------

------------------------------------------------------------------------
------------------------------------------------------------------------
------------------------------------------------------------------------
------------------------------------------------------------------------
------------------------------------------------------------------------
------------------------------------------------------------------------

------------------------------------------------------------------------
------------------------------------------------------------------------
------------------------------------------------------------------------
------------------------------------------------------------------------
------------------------------------------------------------------------
------------------------------------------------------------------------

--5h2---4h2---7h2---5h2-----5h2---4h2---7h2---5h2---
----------------------------------------------------
----------------------------------------------------
----------------------------------------------------
----------------------------------------------------
----------------------------------------------------

--9h5---7h5---10h5---9h5-----9h5---7h5---10h5---9h5---
------------------------------------------------------
------------------------------------------------------
------------------------------------------------------
------------------------------------------------------
------------------------------------------------------

--10h7---9h7---12h7---10h7-----9h10h9h7--------------------------
----------------------------------------10h9h7h6h7h6-------------
-----------------------------------------------------7h6h4-------
-----------------------------------------------------------7h6h4-
-----------------------------------------------------------------
-----------------------------------------------------------------

---------------------------------------------------------------
---------------------------------------------------------------
---------------------------------------------------------------
--3h4h3h0------------------------------------------------------
----------4h2h0------------------------------------------------
----------------4-2~-------------------------------------------

------------------------------------------------------------------------
------------------------------------------------------------------------
------------------------------------------------------------------------
------------------------------------------------------------------------
------------------------------------------------------------------------
------------------------------------------------------------------------

------------------------------------------------------------------------
------------------------------------------------------------------------
------------------------------------------------------------------------
------------------------------------------------------------------------
------------------------------------------------------------------------
------------------------------------------------------------------------

------------------------------------------------------------------------
------------------------------------------------------------------------
------------------------------------------------------------------------
------------------------------------------------------------------------
------------------------------------------------------------------------
------------------------------------------------------------------------

------------------------------------------------------------------------
------------------------------------------------------------------------
------------------------------------------------------------------------
------------------------------------------------------------------------
------------------------------------------------------------------------
------------------------------------------------------------------------

--------------------------------------5h2---4h2---7h2---5h2---
--------------------------------------------------------------
--------------------------------------------------------------
--------------------------------------------------------------
--------------------------------------------------------------
--------------------------------------------------------------

--5h2---4h2---7h2---5h2-----9h5---7h5---10h5---9h5---
-----------------------------------------------------
-----------------------------------------------------
-----------------------------------------------------
-----------------------------------------------------
-----------------------------------------------------

--9h5---7h5---10h5---9h5-----10h7---9h7---12h7---10h7---
--------------------------------------------------------
--------------------------------------------------------
--------------------------------------------------------
--------------------------------------------------------
--------------------------------------------------------

--9h10h9h7--------------------------------------------------------------
-----------10h9h7h6h7h6-------------------------------------------------
------------------------7h6h4-------------------------------------------
------------------------------7h6h4---3h4h3h0---------------------------
----------------------------------------------4h2h0---------------------
----------------------------------------------------4-------------------

-------------------------------------------------------
Добавлено: 04.02.2014
Другие материалы по этой песне:

Страница создана 05.03.2012
http://primanota.ru/nightwish/sacrament-of-the-wilderness-chords.htm
Привет, Гость.
Предлагаем пройти революционный курс по гитаре.
Подарок от PrimaNota.Ru, забирай!