PrimaNota.ru - самый крупный в мире бесплатный архив песенных текстов, аккордов, табулатур и нот


Nightwish - Phantom Of The Opera - аккорды и текст, таба, бас-таба, видео

Регистрация Запомнить меня
Войти через:  Facebook Google Twitter Vk Yandex Mail.ru

Nightwish - Phantom Of The Opera - аккорды и текст, таба, бас-таба, видео

Печатать
Просмотров: 2096
Авторы музыки: Andrew Lloyd Webber
Авторы текста: Richard Stilgoe, Mike Batt, Charles Hart
Phantom Of The Opera
Nightwish
		Phantom Of The Opera

 		Bass

		[F||------------------|------------------|------------------------|
		C||------------------|------------------|------------------------|
		G||------------------|------------------|------------------------|
		D||------------------|------------------|----------3-4---4-5-6-7-|

		----------------------------------|----------------------------------|
		----------------------------------|----------------------------------|
		----------------------------------|----------------------------------|
		--8-8-8-8-8-8-8-8-8-8-8-8-8-7-6-5-|--4-4-4-4-4-4-4-4-3-4-4-4-4-5-6-7-|

		-------------------|--------------------|-------------------|
		-------------------|--------------------|-------------------|
		-------------------|-----------1--------|--3----------------|
		--8----------------|--4-----------------|-------------------|

		--------------------|-------------------|----------------------------------|
		--------------------|-------------------|----------------------------------|
		-----------1--------|--3----------------|------------------1-1-1-1-1-1-1-1-|
		--4-----------------|-------------------|--4-4-4-4-4-4-4-4-----------------|

		----------------------------------|-------------------|-------------------|
		----------------------------------|-------------------|-------------------|
		--3-3-3-3-3-3-3-3-3-3-3-3-3-3-3-3-|--3----------------|-------------------|
		----------------------------------|-------------------|--4----------------|

		----------------------------------|----------------------------------|
		----------------------------------|----------------------------------|
		----------------------------------|----------------------------------|
		--8-8-8-8-8-8-8-8-8-8-8-8-8-7-6-5-|--4-4-4-4-4-4-4-4-3-4-4-4-4-4-4-4-|

		-------------------|--------------------|-------------------|
		-------------------|-----------1--------|--3----------------|
		-------------------|--4-----------------|-------------------|
		--1----------------|--------------------|-------------------|

		--------------------|-------------------|----------------------------------|
		-----------1--------|--3----------------|------------------1-1-1-1-1-1-1-1-|
		--4-----------------|-------------------|--4-4-4-4-4-4-4-4-----------------|
		--------------------|-------------------|----------------------------------|

		----------------------------------|-------------------|-------------------|
		--3-3-3-3-3-3-3-3-3-3-3-3-3-3-3-3-|--3----------------|-------------------|
		----------------------------------|-------------------|--4----------------|
		----------------------------------|-------------------|-------------------|

		----------------------------------|----------------------------------|
		----------------------------------|----------------------------------|
		--8-8-8-8-8-8-8-8-8-8-8-8-8-7-6-5-|--4-4-4-4-4-4-4-4-3-3-3-3-3-3-3-3-|
		----------------------------------|----------------------------------|

		-------------------|--------------------|-------------------|
		-------------------|--------------------|-------------------|
		--5----------------|--1--------3--------|--5----------------|
		-------------------|--------------------|-------------------|

		--------------------|-------------------|----------------------------------|
		--------------------|-------------------|----------------------------------|
		--1--------3--------|--5----------------|--1-1-1-1-1-1-1-1-3-3-3-3-3-3-3-3-|
		--------------------|-------------------|----------------------------------|

		----------------------------------|------------------------------|
		--0-0-0-0-0-0-0-0-0-0-0-0-0-0-0-0-|------------------------------|
		----------------------------------|--5--5-5-5--5-5-5--5-5-5--5-5-|
		----------------------------------|------------------------------|

		------------------------------|-------------------------------|
		------------------------------|-------------------------------|
		--1--1-1-1--1-1-1--1-1-1--1-1-|--5--5-5-5--5-5-5--5-5-5-4-3-2-|
		------------------------------|-------------------------------|

		-------------------------------|-------------------------------|
		-------------------------------|-------------------------------|
		--1--1-1-1--1-1-1--1-1-1-2-3-4-|--5--5-5-5--5-5-5--5-5-5-4-3-2-|
		-------------------------------|-------------------------------|

		------------------------------|-----------------------|---------------------|
		------------------------------|-----------------------|---------------------|
		--1--1-1-1--1-1-0--0-0-0--0-0-|--6-------4-6-----4--4-|--6-------4-6--------|
		------------------------------|-----------------------|---------------------|

		----------------------------------|----------------------------------|
		----------------------------------|----------------------------------|
		--2-2-2-2-2-2-2-2-4-4-4-4-4-4-4-4-|--6-6-6-6-6-6-6-6-6-6-6-6-6-6-6-6-|
		----------------------------------|----------------------------------|

		----------------------------------|----------------------------------|
		----------------------------------|----------------------------------|
		--2-2-2-2-2-2-2-2-4-4-4-4-4-4-4-4-|--6-6-6-6-6-6-6-6-6-6-6-6-6-6-6-6-|
		----------------------------------|----------------------------------|

		----------------------------------|----------------------------------|
		----------------------------------|----------------------------------|
		--2-2-2-2-2-2-2-2-4-4-4-4-4-4-4-4-|--6-6-6-6-6-6-6-6-6-6-6-6-6-6-6-6-|
		----------------------------------|----------------------------------|

		------------------------------|------------------------------|
		------------------------------|------------------------------|
		--6--6-6-6--6-6-6--6-6-6--6-6-|--2--2-2-2--2-2-2--2-2-2--2-2-|
		------------------------------|------------------------------|

		-------------------------------|-------------------------------|
		-------------------------------|-------------------------------|
		--6--6-6-6--6-6-6--6-6-6-5-4-3-|--2--2-2-2--2-2-2--2-2-2-3-4-5-|
		-------------------------------|-------------------------------|

		-------------------------------|------------------------------|
		-------------------------------|------------------------------|
		--6--6-6-6--6-6-6--6-6-6-5-4-3-|--2--2-2-2--2-2-2--2-2-2--2-2-|
		-------------------------------|------------------------------|

		|-----------------------------------|-----------------------------------||
		|*----------5---4-3---------5---4-3-|----------5---4-3---------5---4-3-*||
		|*--3-3-3-3---3-----3-3-3-3---3-----|--3-3-3-3---3-----3-3-3-3---3-----*||
		|-----------------------------------|-----------------------------------||

		-----------------------------------|-----------------------------------||
		*----------7---6-5---------7---6-5-|----------7---6-5---------7---6-5-*||
		*--5-5-5-5---5-----5-5-5-5---5-----|--5-5-5-5---5-----5-5-5-5---5-----*||
		-----------------------------------|-----------------------------------||

		----------------------------------|----------------------------------|
		----------7---6-5---------7---6-5-|----------7---6-5---------7---6-5-|
		--5-5-5-5---5-----5-5-5-5---5-----|--5-5-5-5---5-----5-5-5-5---5-----|
		----------------------------------|----------------------------------|

		----------------------------------|----------------------------------|
		----------7---6-5---------7---6-5-|----------7---6-5---------7---6-5-|
		--5-5-5-5---5-----5-5-5-5---5-----|--5-5-5-5---5-----5-5-5-5---5-----|
		----------------------------------|----------------------------------|

		------------------||
		------------------||
		------------------||
		------------------||]

-

 		Guitar

		[D||------------------|------------------|------------------------|
		A||------------------|------------------|------------------------|
		F||------------------|------------------|------------------------|
		C||------------------|------------------|------------------------|
		G||------------------|------------------|----------5-6---6-7-8-9-|
		D||------------------|------------------|----------3-4---4-5-6-7-|

		----------------------------|----------------------------|--------------------|
		----------------------------|----------------------------|--------------------|
		----------------------------|----------------------------|--------------------|
		----------------------------|----------------------------|--------------------|
		--10------------10-9--8--7--|--6--------5-6---6-7--8--9--|--10----------------|
		--8-------------8--7--6--5--|--4--------3-4---4-5--6--7--|--8-----------------|

		------------------|------------------|------------------|------------------|
		------------------|------------------|------------------|------------------|
		------------------|------------------|------------------|------------------|
		------------------|------------------|------------------|------------------|
		------------------|------------------|------------------|------------------|
		------------------|------------------|------------------|------------------|

		--------------------|---------------------------------------|
		--------------------|---------------------------------------|
		--------------------|---------------------------------------|
		--6--------8--------|--10-----------------------8-----------|
		--6--------8--------|--10--------10--10-10--10----10--11-10-|
		--4--------6--------|--8---------8------8---8-----8---------|

		--------------------|-------------------|----------------------------|
		--------------------|-------------------|----------------------------|
		--------------------|-------------------|----------------------------|
		--10----------------|--6----------------|----------------------------|
		--10----------------|--6----------------|--10------------10-9--8--7--|
		--8-----------------|--4----------------|--8-------------8--7--6--5--|

		----------------------------|-------------------|------------------|
		----------------------------|-------------------|------------------|
		----------------------------|-------------------|------------------|
		----------------------------|-------------------|------------------|
		--6--------5-6---6-6--6--6--|--3----------------|------------------|
		--4--------3-4---4-4--4--4--|--1----------------|------------------|

		------------------|------------------|------------------|--------------------|
		------------------|------------------|------------------|--------------------|
		------------------|------------------|------------------|--6--------8--------|
		------------------|------------------|------------------|--6--------8--------|
		------------------|------------------|------------------|--4--------6--------|
		------------------|------------------|------------------|--------------------|

		---------------------------------------|--------------------|
		---------------------------------------|--------------------|
		--10-----------------------8-----------|--10----------------|
		--10--------10--10-10--10----10--11-10-|--10----------------|
		--8---------8------8---8-----8---------|--8-----------------|
		---------------------------------------|--------------------|

		-------------------|----------------------------|--------------------|
		-------------------|----------------------------|--------------------|
		--6----------------|----------------------------|--------------------|
		--6----------------|--10------------10-9--8--7--|--6--------5--------|
		--4----------------|--8-------------8--7--6--5--|--4--------3--------|
		-------------------|----------------------------|--------------------|

		-------------------|------------------|------------------|------------------|
		-------------------|------------------|------------------|------------------|
		-------------------|------------------|------------------|------------------|
		--7----------------|------------------|------------------|------------------|
		--5----------------|------------------|------------------|------------------|
		-------------------|------------------|------------------|------------------|

		------------------|--------------------|
		------------------|--------------------|
		------------------|--3--------5--------|
		------------------|--3--------5--------|
		------------------|--1--------3--------|
		------------------|--------------------|

		---------------------------------------------|
		---------------------------------------------|
		---------------------------------------------|
		--7-7--7--7--10-10--9-9--8-7--7--7--10-9-8-7-|
		--5-5--5--5--8--8---7-7--6-5--5--5--8--7-6-5-|
		---------------------------------------------|

		--------------------------------------|--------------------------------------|
		--------------------------------------|--------------------------------------|
		--------------------------------------|--3--------3--------3--------3--------|
		--7--7--7--7--7--7--7--7--7--7--7--7--|--3--3--3--3--3--3--3--3--3--3--3--3--|
		--5--5--5--5--5--5--5--5--5--5--5--5--|--1--1--1--1--1--1--1--1--1--1--1--1--|
		--------------------------------------|--------------------------------------|

		-------------------------------------|-------------------------------------|
		-------------------------------------|-------------------------------------|
		--7--------7--------7--------7-6-5-4-|--3--------3--------3--------3-4-5-6-|
		--7--7--7--7--7--7--7--7--7--7-6-5-4-|--3--3--3--3--3--3--3--3--3--3-4-5-6-|
		--5--5--5--5--5--5--5--5--5--5-4-3-2-|--1--1--1--1--1--1--1--1--1--1-2-3-4-|
		-------------------------------------|-------------------------------------|

		-------------------------------------|--------------------------------------|
		-------------------------------------|--------------------------------------|
		--7--------7--------7--------7-6-5-4-|--3--------3--------2--------2--------|
		--7--7--7--7--7--7--7--7--7--7-6-5-4-|--3--3--3--3--3--3--2--2--2--2--2--2--|
		--5--5--5--5--5--5--5--5--5--5-4-3-2-|--1--1--1--1--1--1--0--0--0--0--0--0--|
		-------------------------------------|--------------------------------------|

		-----------------------|---------------------|--------------------|
		-----------------------|---------------------|--------------------|
		-----------------------|---------------------|--4--------6--------|
		--8-------6-8-----6--6-|--8-------6-8--------|--4--------6--------|
		--6-------4-6-----4--4-|--6-------4-6--------|--2--------4--------|
		-----------------------|---------------------|--------------------|

		------------------------------------------------|--------------------|
		------------------------------------------------|--------------------|
		------------------------------------------------|--4--------6--------|
		--8-8--8--8--8--8--8--8--8--8--8--8--8--8--8--8-|--4--------6--------|
		--6-6--6--6--6--6--6--6--6--6--6--6--6--6--6--6-|--2--------4--------|
		------------------------------------------------|--------------------|

		------------------------------------------------|--------------------|
		------------------------------------------------|--------------------|
		------------------------------------------------|--4--------6--------|
		--8-8--8--8--8--8--8--8--8--8--8--8--8--8--8--8-|--4--------6--------|
		--6-6--6--6--6--6--6--6--6--6--6--6--6--6--6--6-|--2--------4--------|
		------------------------------------------------|--------------------|

		------------------------------------------|
		------------------------------------------|
		--8---------------------------------------|
		--8-8--8--8--8----7----6----4-3-4--4-6--6-|
		--6-6--6--6--6-6--5-5--4-4--2-1-2--2-4--4-|
		------------------------------------------|

		--------------------------------------|--------------------------------------|
		--------------------------------------|--------------------------------------|
		--8--------8--------8--------8--------|--4--------4--------4--------4--------|
		--8--8--8--8--8--8--8--8--8--8--8--8--|--4--4--4--4--4--4--4--4--4--4--4--4--|
		--6--6--6--6--6--6--6--6--6--6--6--6--|--2--2--2--2--2--2--2--2--2--2--2--2--|
		--------------------------------------|--------------------------------------|

		-------------------------------------|-------------------------------------|
		-------------------------------------|-------------------------------------|
		--8--------8--------8--------8-7-6-5-|--4--------4--------4--------4-5-6-7-|
		--8--8--8--8--8--8--8--8--8--8-7-6-5-|--4--4--4--4--4--4--4--4--4--4-5-6-7-|
		--6--6--6--6--6--6--6--6--6--6-5-4-3-|--2--2--2--2--2--2--2--2--2--2-3-4-5-|
		-------------------------------------|-------------------------------------|

		-------------------------------------|--------------------------------------|
		-------------------------------------|--------------------------------------|
		--8--------8--------8--------8-7-6-5-|--4--------4--------4--------4--------|
		--8--8--8--8--8--8--8--8--8--8-7-6-5-|--4--4--4--4--4--4--4--4--4--4--4--4--|
		--6--6--6--6--6--6--6--6--6--6-5-4-3-|--2--2--2--2--2--2--2--2--2--2--2--2--|
		-------------------------------------|--------------------------------------|

		|-------------------------------------------|
		|-------------------------------------------|
		|*------------------------------------------|
		|*--5-5--5--5--5-5--4-3-5-5--5--5--5-5--4-3-|
		|---3-3--3--3--3-3--3-3-3-3--3--3--3-3--3-3-|
		|-------------------------------------------|

		-------------------------------------------||
		-------------------------------------------||
		------------------------------------------*||
		--5-5--5--5--5-5--4-3-5-5--5--5--5-5--4-3-*||
		--3-3--3--3--3-3--3-3-3-3--3--3--3-3--3-3--||
		-------------------------------------------||

		-------------------------------------------|
		-------------------------------------------|
		*------------------------------------------|
		*--7-7--7--7--7-7--6-5-7-7--7--7--7-7--6-5-|
		---5-5--5--5--5-5--5-5-5-5--5--5--5-5--5-5-|
		-------------------------------------------|

		-------------------------------------------||
		-------------------------------------------||
		------------------------------------------*||
		--7-7--7--7--7-7--6-5-7-7--7--7--7-7--6-5-*||
		--5-5--5--5--5-5--5-5-5-5--5--5--5-5--5-5--||
		-------------------------------------------||

		------------------------------------------|
		------------------------------------------|
		------------------------------------------|
		--7-7--7--7--7-7--6-5-7-7--7--7--7-7--6-5-|
		--5-5--5--5--5-5--5-5-5-5--5--5--5-5--5-5-|
		------------------------------------------|

		------------------------------------------|
		------------------------------------------|
		------------------------------------------|
		--7-7--7--7--7-7--6-5-7-7--7--7--7-7--6-5-|
		--5-5--5--5--5-5--5-5-5-5--5--5--5-5--5-5-|
		------------------------------------------|

		------------------------------------------|
		------------------------------------------|
		------------------------------------------|
		--7-7--7--7--7-7--6-5-7-7--7--7--7-7--6-5-|
		--5-5--5--5--5-5--5-5-5-5--5--5--5-5--5-5-|
		------------------------------------------|

		------------------------------------------|------------------||
		------------------------------------------|------------------||
		------------------------------------------|------------------||
		--7-7--7--7--7-7--6-5-7-7--7--7--7-7--7-7-|------------------||
		--5-5--5--5--5-5--5-5-5-5--5--5--5-5--5-5-|------------------||
		------------------------------------------|------------------||]

-

 		Guitar2

		[D||------------------|------------------|------------------------|
		A||------------------|------------------|------------------------|
		F||------------------|------------------|------------------------|
		C||------------------|------------------|------------------------|
		G||------------------|------------------|----------5-6---6-7-8-9-|
		D||------------------|------------------|----------3-4---4-5-6-7-|

		----------------------------|----------------------------|--------------------|
		----------------------------|----------------------------|--------------------|
		----------------------------|----------------------------|--------------------|
		----------------------------|----------------------------|--------------------|
		--10------------10-9--8--7--|--6--------5-6---6-7--8--9--|--10----------------|
		--8-------------8--7--6--5--|--4--------3-4---4-5--6--7--|--8-----------------|

		------------------|------------------|------------------|------------------|
		------------------|------------------|------------------|------------------|
		------------------|------------------|------------------|------------------|
		------------------|------------------|------------------|------------------|
		------------------|------------------|------------------|------------------|
		------------------|------------------|------------------|------------------|

		--------------------|---------------------------------------|
		--------------------|---------------------------------------|
		--------------------|---------------------------------------|
		--6--------8--------|--10-----------------------8-----------|
		--6--------8--------|--10--------10--10-10--10----10--11-10-|
		--4--------6--------|--8---------8------8---8-----8---------|

		--------------------|-------------------|----------------------------|
		--------------------|-------------------|----------------------------|
		--------------------|-------------------|----------------------------|
		--10----------------|--6----------------|----------------------------|
		--10----------------|--6----------------|--10------------10-9--8--7--|
		--8-----------------|--4----------------|--8-------------8--7--6--5--|

		----------------------------|-------------------|------------------|
		----------------------------|-------------------|------------------|
		----------------------------|-------------------|------------------|
		----------------------------|-------------------|------------------|
		--6--------5-6---6-6--6--6--|--3----------------|------------------|
		--4--------3-4---4-4--4--4--|--1----------------|------------------|

		------------------|------------------|------------------|--------------------|
		------------------|------------------|------------------|--------------------|
		------------------|------------------|------------------|--6--------8--------|
		------------------|------------------|------------------|--6--------8--------|
		------------------|------------------|------------------|--4--------6--------|
		------------------|------------------|------------------|--------------------|

		---------------------------------------|--------------------|
		---------------------------------------|--------------------|
		--10-----------------------8-----------|--10----------------|
		--10--------10--10-10--10----10--11-10-|--10----------------|
		--8---------8------8---8-----8---------|--8-----------------|
		---------------------------------------|--------------------|

		-------------------|----------------------------|--------------------|
		-------------------|----------------------------|--------------------|
		--6----------------|----------------------------|--------------------|
		--6----------------|--10------------10-9--8--7--|--6--------5--------|
		--4----------------|--8-------------8--7--6--5--|--4--------3--------|
		-------------------|----------------------------|--------------------|

		-------------------|------------------|------------------|------------------|
		-------------------|------------------|------------------|------------------|
		-------------------|------------------|------------------|------------------|
		--7----------------|------------------|------------------|------------------|
		--5----------------|------------------|------------------|------------------|
		-------------------|------------------|------------------|------------------|

		------------------|--------------------|
		------------------|--------------------|
		------------------|--3--------5--------|
		------------------|--3--------5--------|
		------------------|--1--------3--------|
		------------------|--------------------|

		---------------------------------------------|
		---------------------------------------------|
		---------------------------------------------|
		--7-7--7--7--10-10--9-9--8-7--7--7--10-9-8-7-|
		--5-5--5--5--8--8---7-7--6-5--5--5--8--7-6-5-|
		---------------------------------------------|

		--------------------------------------|--------------------------------------|
		--------------------------------------|--------------------------------------|
		--------------------------------------|--3--------3--------3--------3--------|
		--7--7--7--7--7--7--7--7--7--7--7--7--|--3--3--3--3--3--3--3--3--3--3--3--3--|
		--5--5--5--5--5--5--5--5--5--5--5--5--|--1--1--1--1--1--1--1--1--1--1--1--1--|
		--------------------------------------|--------------------------------------|

		-------------------------------------|-------------------------------------|
		-------------------------------------|-------------------------------------|
		--7--------7--------7--------7-6-5-4-|--3--------3--------3--------3-4-5-6-|
		--7--7--7--7--7--7--7--7--7--7-6-5-4-|--3--3--3--3--3--3--3--3--3--3-4-5-6-|
		--5--5--5--5--5--5--5--5--5--5-4-3-2-|--1--1--1--1--1--1--1--1--1--1-2-3-4-|
		-------------------------------------|-------------------------------------|

		-------------------------------------|--------------------------------------|
		-------------------------------------|--------------------------------------|
		--7--------7--------7--------7-6-5-4-|--3--------3--------2--------2--------|
		--7--7--7--7--7--7--7--7--7--7-6-5-4-|--3--3--3--3--3--3--2--2--2--2--2--2--|
		--5--5--5--5--5--5--5--5--5--5-4-3-2-|--1--1--1--1--1--1--0--0--0--0--0--0--|
		-------------------------------------|--------------------------------------|

		-----------------------|------------------------|------------------------|
		-----------------------|------------------------|------------------------|
		-----------------------|------------------8-----|--6---4-4~--------6-----|
		--8-------6-8-----6--6-|--8-------6-8--8------8-|---------------6------6-|
		--6-------4-6-----4--4-|--6-------4-6-----------|------------------------|
		-----------------------|------------------------|------------------------|

		----------------------|------------------------|----------------------|
		----------------------|------------------------|----------------------|
		----------------8-----|--6---4-4~--------6-----|----------------------|
		--8~---------8------8-|---------------6------6-|--8-------------4--8--|
		----------------------|------------------------|-------------4--------|
		----------------------|------------------------|----------------------|

		--------------------|------------------------------------------|
		--------------------|------------------------------------------|
		--4--------6--------|--8---------------------------------------|
		--4--------6--------|--8-8--8--8--8----7----6----4-3-4--4-6--6-|
		--2--------4--------|--6-6--6--6--6-6--5-5--4-4--2-1-2--2-4--4-|
		--------------------|------------------------------------------|

		--------------------------------------|--------------------------------------|
		--------------------------------------|--------------------------------------|
		--8--------8--------8--------8--------|--4--------4--------4--------4--------|
		--8--8--8--8--8--8--8--8--8--8--8--8--|--4--4--4--4--4--4--4--4--4--4--4--4--|
		--6--6--6--6--6--6--6--6--6--6--6--6--|--2--2--2--2--2--2--2--2--2--2--2--2--|
		--------------------------------------|--------------------------------------|

		-------------------------------------|-------------------------------------|
		-------------------------------------|-------------------------------------|
		--8--------8--------8--------8-7-6-5-|--4--------4--------4--------4-5-6-7-|
		--8--8--8--8--8--8--8--8--8--8-7-6-5-|--4--4--4--4--4--4--4--4--4--4-5-6-7-|
		--6--6--6--6--6--6--6--6--6--6-5-4-3-|--2--2--2--2--2--2--2--2--2--2-3-4-5-|
		-------------------------------------|-------------------------------------|

		-------------------------------------|--------------------------------------|
		-------------------------------------|--------------------------------------|
		--8--------8--------8--------8-7-6-5-|--4--------4--------4--------4--------|
		--8--8--8--8--8--8--8--8--8--8-7-6-5-|--4--4--4--4--4--4--4--4--4--4--4--4--|
		--6--6--6--6--6--6--6--6--6--6-5-4-3-|--2--2--2--2--2--2--2--2--2--2--2--2--|
		-------------------------------------|--------------------------------------|

		|-------------------------------------------|
		|-------------------------------------------|
		|*------------------------------------------|
		|*--5-5--5--5--5-5--4-3-5-5--5--5--5-5--4-3-|
		|---3-3--3--3--3-3--3-3-3-3--3--3--3-3--3-3-|
		|-------------------------------------------|

		-------------------------------------------||
		-------------------------------------------||
		------------------------------------------*||
		--5-5--5--5--5-5--4-3-5-5--5--5--5-5--4-3-*||
		--3-3--3--3--3-3--3-3-3-3--3--3--3-3--3-3--||
		-------------------------------------------||

		-------------------------------------------|
		-------------------------------------------|
		*------------------------------------------|
		*--7-7--7--7--7-7--6-5-7-7--7--7--7-7--6-5-|
		---5-5--5--5--5-5--5-5-5-5--5--5--5-5--5-5-|
		-------------------------------------------|

		-------------------------------------------||
		-------------------------------------------||
		------------------------------------------*||
		--7-7--7--7--7-7--6-5-7-7--7--7--7-7--6-5-*||
		--5-5--5--5--5-5--5-5-5-5--5--5--5-5--5-5--||
		-------------------------------------------||

		------------------------------------------|
		------------------------------------------|
		------------------------------------------|
		--7-7--7--7--7-7--6-5-7-7--7--7--7-7--6-5-|
		--5-5--5--5--5-5--5-5-5-5--5--5--5-5--5-5-|
		------------------------------------------|

		------------------------------------------|
		------------------------------------------|
		------------------------------------------|
		--7-7--7--7--7-7--6-5-7-7--7--7--7-7--6-5-|
		--5-5--5--5--5-5--5-5-5-5--5--5--5-5--5-5-|
		------------------------------------------|

		------------------------------------------|
		------------------------------------------|
		------------------------------------------|
		--7-7--7--7--7-7--6-5-7-7--7--7--7-7--6-5-|
		--5-5--5--5--5-5--5-5-5-5--5--5--5-5--5-5-|
		------------------------------------------|

		------------------------------------------|------------------||
		------------------------------------------|------------------||
		------------------------------------------|------------------||
		--7-7--7--7--7-7--6-5-7-7--7--7--7-7--7-7-|------------------||
		--5-5--5--5--5-5--5-5-5-5--5--5--5-5--5-5-|------------------||
		------------------------------------------|------------------||]

-

Перевод:	Фантом Оперы

Она:		Сквозь сон он пел мне,
		Во сне приходил.
		Этот голос, что взывает ко мне
		И произносит мое имя...
		И не ужели я снова сплю
		Ибо я обнаруживаю,
		Что Призрак Оперы там,
		В моем сознанье...

Он:		Еще раз спой вместе со мной
		Наш странный дуэт
		Моя власть над тобой
		Все еще усиливается
		И хотя ты отвернешься от меня,
		Чтобы взглянуть назад
		Призрак Оперы там -
		в твоем сознанье...

Она:		Те, кто видели твое лицо
		Отшатываются в страхе
		Я маска, которую ты носишь...

Он:		Это меня они слышат...
		Вместе: Твой/мой дух и твой/мой голос

Она:		Соединились в одном:
		Призрак Оперы там -

Вместе:		В твоем/моем сознанье...
		Он там, Призрак Оперы...
		Берегись Призрака Оперы...

Он:		Во всех твоих фантазиях
		Ты всегда знала,
		Этот человек и тайна

Она:		Были оба в тебе...
		И в этом лабиринте
		Где ночь слепа

Вместе:		Призрак Оперы там/здесь
		В твоем/моем сознанье

Он:		Пой, мой Ангел Музыки 
		Он там, Призрак Оперы...
Добавлено: 14.01.2014
Другие материалы по этой песне:

Страница создана 03.03.2012
http://primanota.ru/nightwish/phantom-of-the-opera-chords.htm
Привет, Гость.
Предлагаем пройти революционный курс по гитаре.
Подарок от PrimaNota.Ru, забирай!