PrimaNota.ru - самый крупный в мире бесплатный архив песенных текстов, аккордов, табулатур и нот


Nightwish - Passion & The Opera - аккорды и текст, таба, видео

Регистрация Запомнить меня
Войти через:  Facebook Google Twitter Vk Yandex Mail.ru

Nightwish - Passion & The Opera - аккорды и текст, таба, видео

Печатать
Просмотров: 409
Уроки эстрадного вокала в Санкт-Петербурге
Авторы музыки: Tuomas Holopainen
Авторы текста: Tuomas Holopainen
Passion & The Opera
Nightwish
Tuned in E (regular)

Intro:		guit 1
            p.m  . . . .              . . .       . . . .
[e:-------------------------------------------------------------------------
B:-------------------------------------------------------------------------
G:------------------------------------------------------------------------
D:-----------------------------6-7-9-7-6----------------------------------
A:-2/13\2/---7h9-9-9-9-9--7h9-9-----------9-7-7h9-9-9-9-9--7h9-9-7---------
E:-----------------------------------------------------------------9-8-7~--]
       . . . .              . . .       . . . .
[e:------------------------------------------------------------------
B:------------------------------------------------------------------
G:-----------------------------------------------------------------   /repeat three
D:--------------------6-7-9-7-6----------------------7p6---9p7-6---  / times
A:-7h9-9-9-9-9--7h9-9-----------9-7-7h9-9-9-9-9--7h9-----9----------
E:------------------------------------------------------------------]

guit 2
listen when guit 2 enters
            p.m . . . . . . . .   . . . . .
[e:---------------------------------------------------------
B:---------------------------------------------------------
G:-----------------2-4-------------------2------------2-4--
D:-4-4--4-4---4-4--2-4-------------------2------------2-4--
A:-4-4--4-4---4-4--0-2-------------------0------------0-2--
E:-2-2--2-2---2-2--------2-2-2-2-2-2-2-2----2-2-2-2-2------]

p.m. . . . . . . .   . . . . .        . . . . . . . .    . . . . .
[e:----------------------------------------------------------------------
B:----------------------------------------------------------------------
G:-----------------2------------2-4-------------------2------------2-4--
D:-----------------2------------2-4-------------------2------------2-4--
A:-----------------0------------0-2-------------------0------------0-2--
E:-2-2-2-2-2-2-2-2----2-2-2-2-2-------2-2-2-2-2-2-2-2----2-2-2-2-2------]

Verse:		Princess of lust..

p.m. . .  . . . . . . .  . . .  . . . . . . .  . . .  . . . . . . .  . . .  . . . .
[e:--------------------------------------------------------------------------------------
B:--------------------------------------------------------------------------------------
G:--------------------------------------------------------------------------------------
D:-------------------------------------------------------------------------------------- } x2
A:---------------------------------------------5-5-5--5-5-5-5-5-5-5--4-4-4--4-4-4-4--2--
E:-2-2-2--2-2-2-2-2-2-2--2-2-2--2-2-2-2-2-2-2----------------------------------------0--]

An Aphrodite..

p.m. . .  . . . . . . .  . . .  . . . . . . .  . . .  . . . . . . .  . . .  . . . .
[e:--------------------------------------------------------------------------------------
B:--------------------------------------------------------------------------------------
G:--------------------------------------------------------------------------------------
D:-------------------------------------------------------------------------------------- } x2
A:---------------------------------------------5-5-5--5-5-5-5-5-5-5--4-4-4--4-4-4-4--2--
E:-2-2-2--2-2-2-2-2-2-2--2-2-2--2-2-2-2-2-2-2----------------------------------------0--]

Licks:		guit 1
               p.m. .
[e:----------------------------------------2-----5-7-9--9-7-5-4------
B:-----------------------2-3-5--5-3-2--------------------------5-2--
G:-6---6-4-2-1--2---------------------4-----------------------------
D:----------------2-2-2-----------------4---------------------------
A:------------------------------------------------------------------
E:------------------------------------------------------------------]

guit 2
               p.m. .
[e:------------------------------------------5-------------------------
B:-----------------------7-9-10--10-9-7-5---------7-9-10--10-9-7-5----
G:-6---6-4-2-1--2-------------------------6------------------------6--
D:----------------2-2-2-----------------------------------------------
A:--------------------------------------------------------------------
E:--------------------------------------------------------------------]

Verse:		Naked limbs reflecting from the moon..

p.m. . .  . . . . . . .  . . .  . . . . . . .  . . .  . . . . . . .  . . .  . . . .
[e:--------------------------------------------------------------------------------------
B:--------------------------------------------------------------------------------------
G:--------------------------------------------------------------------------------------
D:-------------------------------------------------------------------------------------- } x2
A:---------------------------------------------5-5-5--5-5-5-5-5-5-5--4-4-4--4-4-4-4--2--
E:-2-2-2--2-2-2-2-2-2-2--2-2-2--2-2-2-2-2-2-2----------------------------------------0--]

An aphrodite..

p.m. . .  . . . . . . .  . . .  . . . . . . .  . . .  . . . . . . .  . . .  . . . .
[e:--------------------------------------------------------------------------------------
B:--------------------------------------------------------------------------------------
G:--------------------------------------------------------------------------------------
D:-------------------------------------------------------------------------------------- } x2
A:---------------------------------------------5-5-5--5-5-5-5-5-5-5--4-4-4--4-4-4-4--2--
E:-2-2-2--2-2-2-2-2-2-2--2-2-2--2-2-2-2-2-2-2----------------------------------------0--]

Licks:		guit 1
               p.m. .
[e:----------------------------------------2-----5-7-9--9-7-5-4------
B:-----------------------2-3-5--5-3-2--------------------------5-2--
G:-6---6-4-2-1--2---------------------4-----------------------------
D:----------------2-2-2-----------------4---------------------------
A:------------------------------------------------------------------
E:------------------------------------------------------------------]

guit 2
               p.m. .
[e:------------------------------------------5-------------------------
B:-----------------------7-9-10--10-9-7-5---------7-9-10--10-9-7-5----
G:-6---6-4-2-1--2-------------------------6------------------------6--
D:----------------2-2-2-----------------------------------------------
A:--------------------------------------------------------------------
E:--------------------------------------------------------------------]

Riff:		p.m. . . . . . . .    . . . . .
[e:-----------------------------------
B:-----------------------------------
G:-----------------------------------
D:-----------------2------------2-4-- } x2
A:-----------------0------------0-2--
E:-0-2-0-2-0-2-0-2----0-2-0-2-0------]


"Intro Riff"
 p.m     . . . .              . . .       . . . .
[e:-----------------------------------------------------------------
B:-----------------------------------------------------------------
G:----------------------3-4-6-4-3----------------------------------
D:---4h6-6-6-6-6--4h6-6-----------6-4-4h6-6-6-6-6--4h6-6-4---------
A:---------------------------------------------------------6-5-4~--
E:-\---------------------------------------------------------------]

       . . . .              . . .       . . . .
[e:----------------------------------------------------------------
B:----------------------------------------------------------------
G:--------------------3-4-6-4-3----------------------3p4---6p4-3--
D:-4h6-6-6-6-6--4h6-6-----------6-4-4h6-6-6-6-6--4h6-----6--------
A:----------------------------------------------------------------
E:----------------------------------------------------------------]

Oh, oh oh...

Bass + strings first..

Listen when guitar enters

     p.m . . .  . . . . . . .  . . .  . . . . . . .
[e:----------------------------------------------------
B:----------------------------------------------------
G:--------------------------------------------------
D:--------------------------------------------------
A:---------------------------------------------------- 
E:-/12\--0-0-0--0-0-0-0-0-0-0--0-0-0--0-0-0-0-0-0-0---]

p.m. . .  . . . . . . .  . . .  . . . . . . .
[e:---------------------------------------------
B:---------------------------------------------
G:---------------------------------------------
D:---------------------------------------------
A:-0-0-0--0-0-0-0-0-0-0--0-0-0--0-0-0-0-0-0-0--
E:---------------------------------------------]

p.m . . .  . . . . . . .  . . .  . . . . . . .
[e:------------------------------------------------------
B:------------------------------------------------------
G:-----------------------listen for right rhythm here..-
D:------------------------------------------------------
A:------------------------------------------------------
E:-0-0-0--0-0-0-0-0-0-0--0-0-0--0-0-0-0-0-0-0-----------]

p.m  . .   . .   . .   . .   . .   . .   . .      . .   . .   . .   . .   . .   . . . .
[e:---------------------------------------------------------------------------------------
B:---------------------------------------------------------------------------------------
G:---------------------------------------------------------------------------------------
D:-6-----6-----6-----6-----6-----6-----6-----6--2-----2-----2-----2-----2-----2----------
A:-4-4-4-4-4-4-4-4-4-4-4-4-4-4-4-4-4-4-4-4-4-4--0-0-0-0-0-0-0-0-0-0-0-0-0-0-0-0-0-0-0-2--
E:---------------------------------------------------------------------------------------]

     . .   . .   . .   . .   . .   . .   . .
[e:---------------------------------------------------------
B:---------------------------------------------------------
G:---------------------------------------------------------
D:-6-----6-----6-----6-----6-----6-----6-----6--7--9--11---
A:-4-4-4-4-4-4-4-4-4-4-4-4-4-4-4-4-4-4-4-4-4-4--5--7--9----
E:---------------------------------------------------------]

p.m. . .  . . . . . . .  . . .  . . . . . . .  . . .  . . . . . . .  .  . . .
[e:--------------------------------------------------------------------------------
B:-----------------------------------------------------------------------------5--   not sure about
G:-----------------------------------------------------------------------------4--   this chord...
D:-----------------------------------------------------------------------------2--  / (may be some
A:-------------------------------------------------------------------------------- /  wha-wha effect..)
E:-0-0-0--0-0-0-0-0-0-0--0-0-0--0-0-0-0-0-0-0--0-0-0--0-0-0-0-0-0-0--0--0-0-0-----]

   p.m. . .  . . . . . . .  . . .  . . . . . . .
[e:--------------------------------------------------
B:--------------------------------------------------
G:------------------------------------------------
D:------------------------------------------------
A:--------------------------------------------------
E:----0-0-0--0-0-0-0-0-0-0--0-0-0--0-0-0-0-0-0-0----]

   p.m. . .  . . . . . . .  . . .  . . . . . . .  . . .  . . . . . . .  . . .  . . . . . . .
[e:----------------------------------------------------------------------------------------------
B:----------------------------------------------------------------------------------------------
G:--------------------------------------------------------------------------------------------
D:--------------------------------------------------------------------------------------------
A:----4-4-4--4-4-4-4-4-4-4--4-4-4--4-4-4-4-4-4-4--0-0-0--0-0-0-0-0-0-0--0-0-0--0-0-0-0-0-0-0----
E:----------------------------------------------------------------------------------------------

e:----------------------------
B:----------------------------
G:--------6----2----6----2----
D:-2------6----2----6----2---- } x2
A:-2------4----0----4----0----
E:-0--------------------------]

fade out..

Tablature explanation:
/ = slide up
\ = slide down
h = hammer on
p = pull off
p.m = palm muted
~ = vibrato
-------
------- = repeat twice

-

Bass

[F#----------------------------------------------------------
C#----------------------------------------------------------
G#----------------------------------------------------------
D#--------------------------------------2-2-----2-2---------

--------------------------------------------------------------------------
--------------------------------------------------------------------------
------------0----2--------------------------0-------------------0----2----
--2-2-------------------2-2--2-2--2-2--2-2---------2-2--2-2--2------------

----------------------------------------------------
----------------------------------------------------
----------------------0-------------------0----2----
--2-2--2-2--2-2--2-2---------2-2--2-2--2------------

----------------------------------------------------
----------------------------------------------------
----------------------0-------------------0----2----
--2-2--2-2--2-2--2-2---------2-2--2-2--2------------

----------------------------------------------------
----------------------------------------------------
----------------------0-------------------0----2----
--2-2--2-2--2-2--2-2---------2-2--2-2--2------------

--------------------------------------------------------
--------------------------------------------------------
--------------------------------------------------------
--2-2-2----2-2-2--2--2-2-2----2-2-2----2-2-2--2--2-2-2--

------------------------------------------------------
------------------------------------------------------
--5-5-5----5-5-5--5--5-5-5----4-4-4----4-4-4--4-------
-------------------------------------------------0----

--------------------------------------------------------
--------------------------------------------------------
--------------------------------------------------------
--2-2-2----2-2-2--2--2-2-2----2-2-2----2-2-2--2--2-2-2--

------------------------------------------------------
------------------------------------------------------
--5-5-5----5-5-5--5--5-5-5----4-4-4----4-4-4--4-------
-------------------------------------------------0----

--------------------------------------------------------
--------------------------------------------------------
--------------------------------------------------------
--2-2-2----2-2-2--2--2-2-2----2-2-2----2-2-2--2--2-2-2--

------------------------------------------------------
------------------------------------------------------
--5-5-5----5-5-5--5--5-5-5----4-4-4----4-4-4--4-------
-------------------------------------------------0----

--------------------------------------------------------
--------------------------------------------------------
--------------------------------------------------------
--2-2-2----2-2-2--2--2-2-2----2-2-2----2-2-2--2--2-2-2--

------------------------------------------------------
------------------------------------------------------
--5-5-5----5-5-5--5--5-5-5----4-4-4----4-4-4--4-------
-------------------------------------------------0----

----------------------------------------------------
----------------------------------------------------
----------------------------------------------------
--2-2-2----2-2-2-2-2--------2-2-2----2-2-2-2-2------

----------------------------------------------------
--0-0-0----0-0-0-0-0--------------------------------
----------------------------0-0-0----0-0-0-0-0------
----------------------------------------------------

----------------------------------------------------
----------------------------------------------------
----------------------------------------------------
--2-2-2----2-2-2-2-2--------2-2-2----2-2-2-2-2------

----------------------------------------------------
--0-0-0----0-0-0-0-0--------------------------------
----------------------------0-0-0----0-0-0-0-0------
----------------------------------------------------

--------------------------------------------------------
--------------------------------------------------------
--------------------------------------------------------
--2-2-2----2-2-2--2--2-2-2----2-2-2----2-2-2--2--2-2-2--

------------------------------------------------------
------------------------------------------------------
--5-5-5----5-5-5--5--5-5-5----4-4-4----4-4-4--4-------
-------------------------------------------------0----

--------------------------------------------------------
--------------------------------------------------------
--------------------------------------------------------
--2-2-2----2-2-2--2--2-2-2----2-2-2----2-2-2--2--2-2-2--

------------------------------------------------------
------------------------------------------------------
--5-5-5----5-5-5--5--5-5-5----4-4-4----4-4-4--4-------
-------------------------------------------------0----

--------------------------------------------------------
--------------------------------------------------------
--------------------------------------------------------
--2-2-2----2-2-2--2--2-2-2----2-2-2----2-2-2--2--2-2-2--

------------------------------------------------------
------------------------------------------------------
--5-5-5----5-5-5--5--5-5-5----4-4-4----4-4-4--4-------
-------------------------------------------------0----

--------------------------------------------------------
--------------------------------------------------------
--------------------------------------------------------
--2-2-2----2-2-2--2--2-2-2----2-2-2----2-2-2--2--2-2-2--

------------------------------------------------------
------------------------------------------------------
--5-5-5----5-5-5--5--5-5-5----4-4-4----4-4-4--4-------
-------------------------------------------------0----

----------------------------------------------------
----------------------------------------------------
----------------------------------------------------
--2-2-2----2-2-2-2-2--------2-2-2----2-2-2-2-2------

----------------------------------------------------
--0-0-0----0-0-0-0-0--------------------------------
----------------------------0-0-0----0-0-0-0-0------
----------------------------------------------------

----------------------------------------------------
----------------------------------------------------
----------------------------------------------------
--2-2-2----2-2-2-2-2--------2-2-2----2-2-2-2-2------

----------------------------------------------------
--0-0-0----0-0-0-0-0--------------------------------
----------------------------0-0-0----0-0-0-0-0------
----------------------------------------------------

------------------------------------------------------
----------------------------------------------------
----------------------0-------------------0----2----
---0-2--0-2--0-2--0-2---------0-2--0-2--0-------------

-----------------------------------------------------
----------------------------------------------------
----------------------2-------------------2----4----
---4-4--4-4--4-4--4-4---------4-4--4-4--4------------

-----------------------------------------------------------------------
----------------------------------------------------------------------
----------------------2-------------------2----4----------------------
--4-4--4-4--4-4--4-4---------4-4--4-4--4-------------------------------

------------------------------------------------------------------------
------------------------------------------------------------------------
------------------------------------------------------------------------
------------------------------------------------------------------------

------------------------------------------------------------------------
------------------------------------------------------------------------
------------------------------------------------------------------------
------------------------------------------------------------------------

------------------------------------------------------------------------
------------------------------------------------------------------------
------------------------------------------------------------------------
------------------------------------------------------------------------

------------------------------------------------------------------------
------------------------------------------------------------------------
------------------------------------------------------------------------
------------------------------------------------------------------------

------------------------------------------------------
------------------------------------------------------
------------------------------------------------------
------------------------------------------------------

--------------------------------------------------------
--------------------------------------------------------
--------------------------------------------------------
--0-0-0----0-0-0--0--0-0-0----0-0-0----0-0-0--0--0-0-0--

--------------------------------------------------------
--------------------------------------------------------
--------------------------------------------------------
--0-0-0----0-0-0--0--0-0-0----0-0-0----0-0-0--0--0-0-0--

--------------------------------------------------------
--------------------------------------------------------
--------------------------------------------------------
--0-0-0----0-0-0--0--0-0-0----0-0-0----0-0-0--0--0-0-0--

--------------------------------------------------------
--------------------------------------------------------
--0-0-0----0-0-0--0--0-0-0----0-0-0----0-0-0--0--0-0-0--
--------------------------------------------------------

--------------------------------------------------------
--------------------------------------------------------
--------------------------------------------------------
--0-0-0----0-0-0--0--0-0-0----0-0-0----0-0-0--0--0-0-0--

--------------------------------------------------------
--------------------------------------------------------
--4-4-4----4-4-4--4--4-4-4----4-4-4----4-4-4--4--2-2-2--
--------------------------------------------------------

--------------------------------------------------------
--------------------------------------------------------
--0-0-0----0-0-0--0--0-0-0----0-0-0----0-0-0--0--2-2-2--
--------------------------------------------------------

--------------------------------------------------------
--------------------------------------------------------
--4-4-4----4-4-4--4--4-4-4----4-4-4----4-4-4--4--2-2-2--
--------------------------------------------------------

-----------------------------------------------------------------
-----------------------------------------------------------------
--0--------2--------4--------------------------------------------
-----------------------------------------------------------------

--------------------------------------------------------------------
--------------------------------------------------------------------
--------------------------------------------------------------------
--------------------0-0-0----0-0-0--0--0-0-0----0--0---0---0--------

--------------------------------------------------------
--------------------------------------------------------
--------------------------------------------------------
--0-0-0----0-0-0--0--0-0-0----0-0-0----0-0-0--0--0-0-0--

--------------------------------------------------------
--------------------------------------------------------
--------------------------------------------------------
--0-0-0----0-0-0--0--0-0-0----0-0-0----0-0-0--0--0-0-0--

--------------------------------------------------------
--------------------------------------------------------
--4-4-4----4-4-4--4--4-4-4----4-4-4----4-4-4--4--4-4-4--
--------------------------------------------------------

--------------------------------------------------------
--------------------------------------------------------
--0-0-0----0-0-0--0--0-0-0----0-0-0----0-0-0--0--0-0-0--
--------------------------------------------------------

--------------------------------------------------------
--------------------------------------------------------
--4-4-4----4-4-4--4--4-4-4----4-4-4----4-4-4--4--4-4-4--
--------------------------------------------------------

--------------------------------------------------------
--------------------------------------------------------
--0-0-0----0-0-0--0--0-0-0----0-0-0----0-0-0--0--0-0-0--
--------------------------------------------------------

--------------------------------------------------------
--------------------------------------------------------
--------------------------------------------------------
--0-0-0----0-0-0--0--0-0-0----0-0-0----0-0-0--0--0-0-0--

--------------------------------------------------------
--------------------------------------------------------
--------------------------------------------------------
--0-0-0----0-0-0--0--0-0-0----0-0-0----0-0-0--0--0-0-0--

--------------------------------------------------------
--------------------------------------------------------
--4-4-4----4-4-4--4--4-4-4----4-4-4----4-4-4--4--4-4-4--
--------------------------------------------------------

--------------------------------------------------------
--------------------------------------------------------
--0-0-0----0-0-0--0--0-0-0----0-0-0----0-0-0--0--0-0-0--
--------------------------------------------------------

--------------------------------------------------------
--------------------------------------------------------
--4-4-4----4-4-4--4--4-4-4----4-4-4----4-4-4--4--4-4-4--
--------------------------------------------------------

--------------------------------------------------------
--------------------------------------------------------
--0-0-0----0-0-0--0--0-0-0----0-0-0----0-0-0--0--0-0-0--
--------------------------------------------------------

--------------------------------------------------------
--------------------------------------------------------
--------------------------------------------------------
--0-0-0----0-0-0--0--0-0-0----0-0-0----0-0-0--0--0-0-0--

--------------------------------------------------------
--------------------------------------------------------
--------------------------------------------------------
--0-0-0----0-0-0--0--0-0-0----0-0-0----0-0-0--0--0-0-0--

--------------------------------------------------------
--------------------------------------------------------
--4-4-4----4-4-4--4--4-4-4----4-4-4----4-4-4--4--4-4-4--
--------------------------------------------------------

--------------------------------------------------------
--------------------------------------------------------
--0-0-0----0-0-0--0--0-0-0----0-0-0----0-0-0--0--0-0-0--
--------------------------------------------------------

--------------------------------------------------------
--------------------------------------------------------
--4-4-4----4-4-4--4--4-4-4----4-4-4----4-4-4--4--4-4-4--
--------------------------------------------------------

--------------------------------------------------------
--------------------------------------------------------
--0-0-0----0-0-0--0--0-0-0----0-0-0----0-0-0--0--0-0-0--
--------------------------------------------------------]

-

Text:		Passion And The Opera

Princess of lust
Dignity put to dust
A virginal sight
Their apple to bite

Drink from my thighs
The rain of lies
A sight so cursed
Breasts which never nursed

An Aphrodite for mortal souls
Playing hide and seek in lecherous roles
Their erotic hour my tearless weep
Their satisfaction my infinite sleep

Naked limbs reflecting from the moon
I'll be there for you soon
First wish for this night:
Let me be your delight

Body of a virgin
Soul to the Devil's kin
Your God is me
In all that you see

An Aphrodite for mortal souls...

-

Перевод:	Страсть и Опера

Принцесса страсти,
Достоинство пало в прах,
Яблоко раскусано на части -
Девственность уж не горит в очах. 

Напиток из моих бедер,
И дождь прощальной лжи,
И проклят взгляд, он годен,
Шептать - не будешь знать ты шепот детворы.

Афродита для душ этих смертных,
Играя в прятки и ища в таинственных ролях,
Их эротичные мгновенья - час слез моих беззвучных, верных,
Их наслажденье - я же в нескончаемых блуждаю снах.

Обнаженные конечности и свет Луны,
В себе, блистая, отражают,
И первое же наслаждение в котором ночи сей огни:
Позвольте вашим восхищеньем быть, мечты то порождают.

Тело - тело это тело девы,
Дух - то Дьявола одной родне,
Бог твой - это я, твои я хлевы,
Меня лишь видишь, вместе мы в огне.

Афродита для душ этих смертных,
Играя в прятки и ища в таинственных ролях,
Их эротичные мгновенья - час слез моих беззвучных, верных,
Их наслажденье - я же в нескончаемых блуждаю снах.

-

Перевод:	"Страсть и опера"

Принцесса вожделения -
Достоинство отброшено в прах,
Дева шепчет:
"Надкуси запретный плод.

Пей из моих бёдер
Дождь лжи."
Похоже на проклятье -
Грудь, что не будет кормить.

Афродита смертных душ
Играет в прятки распутных ролей.
Их час эротики - мой плач без слёз,
Их удовольствие - мой вечный сон.

Обнажённый тела освещает луна,
Я скоро буду там для тебя.
Первое желание в эту ночь:
Позволь быть твоим восторгом.

Тело девы,
Душа дьявола,
Твой бог - это я
Во всём, что ты видишь.

Афродита смертных душ
Играет в прятки распутных ролей.
Их час эротики - мой плач без слёз,
Их удовольствие - мой вечный сон.

-

Guitar

[D#-----------------------------------------------------------------
A#-----------------------------------------------------------------
F#-----------------------------------------------------------------
C#--------------------6-7-9-7-6------------------------------------
G#--7-9-9-9-9-9-9-7-9-----------9-7---7-9-9-9-9-9-9-7-9-7----------
D#--------------------------------------------------------9-8-7~---

--------------------------------------------------------------------
--------------------------------------------------------------------
--------------------------------------------------------------------
--------------------6-7-9-7-6-----------------------7-6-----9-7-6---
--7-9-9-9-9-9-9-7-9-----------9-7---7-9-9-9-9-9-9-7-----9-7-------9-
--------------------------------------------------------------------

-----------------------------------------------------------------
-----------------------------------------------------------------
-----------------------------------------------------------------
--------------------6-7-9-7-6------------------------------------
--7-9-9-9-9-9-9-7-9-----------9-7---7-9-9-9-9-9-9-7-9-7----------
--------------------------------------------------------9-8-7~---

--------------------------------------------------------------------
--------------------------------------------------------------------
--------------------------------------------------------------------
--------------------6-7-9-7-6-----------------------7-6-----9-7-6---
--7-9-9-9-9-9-9-7-9-----------9-7---7-9-9-9-9-9-9-7-----9-7-------9-
--------------------------------------------------------------------

-----------------------------------------------------------------
-----------------------------------------------------------------
-----------------------------------------------------------------
--------------------6-7-9-7-6------------------------------------
--7-9-9-9-9-9-9-7-9-----------9-7---7-9-9-9-9-9-9-7-9-7----------
--------------------------------------------------------9-8-7~---

--------------------------------------------------------------------
--------------------------------------------------------------------
--------------------------------------------------------------------
--------------------6-7-9-7-6-----------------------7-6-----9-7-6---
--7-9-9-9-9-9-9-7-9-----------9-7---7-9-9-9-9-9-9-7-----9-7-------9-
--------------------------------------------------------------------

----------------------------------------------------------------------------
----------------------------------------------------------------------------
----------------------------------------------------------------------------
----------------------------------------------------------------------------
--4--4--4-----4--4--4---4---4--4--4-----4--4--4-----4--4--4---4---4--4--4---
--2--2--2-----2--2--2---2---2--2--2-----2--2--2-----2--2--2---2---2--2--2---

-----------------------------------------------------------------------
-----------------------------------------------------------------------
-----------------------------------------------------------------------
--7--7--7-----7--7--7---7---7--7--7-----6--6--6-----6--6--6---6---2----
--5--5--5-----5--5--5---5---5--5--5-----4--4--4-----4--4--4---4---2----
------------------------------------------------------------------0----

----------------------------------------------------------------------------
----------------------------------------------------------------------------
----------------------------------------------------------------------------
----------------------------------------------------------------------------
--4--4--4-----4--4--4---4---4--4--4-----4--4--4-----4--4--4---4---4--4--4---
--2--2--2-----2--2--2---2---2--2--2-----2--2--2-----2--2--2---2---2--2--2---

-----------------------------------------------------------------------
-----------------------------------------------------------------------
-----------------------------------------------------------------------
--7--7--7-----7--7--7---7---7--7--7-----6--6--6-----6--6--6---6---2----
--5--5--5-----5--5--5---5---5--5--5-----4--4--4-----4--4--4---4---2----
------------------------------------------------------------------0----

----------------------------------------------------------------------------
----------------------------------------------------------------------------
----------------------------------------------------------------------------
----------------------------------------------------------------------------
--4--4--4-----4--4--4---4---4--4--4-----4--4--4-----4--4--4---4---4--4--4---
--2--2--2-----2--2--2---2---2--2--2-----2--2--2-----2--2--2---2---2--2--2---

-----------------------------------------------------------------------
-----------------------------------------------------------------------
-----------------------------------------------------------------------
--7--7--7-----7--7--7---7---7--7--7-----6--6--6-----6--6--6---6---2----
--5--5--5-----5--5--5---5---5--5--5-----4--4--4-----4--4--4---4---2----
------------------------------------------------------------------0----

----------------------------------------------------------------------------
----------------------------------------------------------------------------
----------------------------------------------------------------------------
----------------------------------------------------------------------------
--4--4--4-----4--4--4---4---4--4--4-----4--4--4-----4--4--4---4---4--4--4---
--2--2--2-----2--2--2---2---2--2--2-----2--2--2-----2--2--2---2---2--2--2---

-----------------------------------------------------------------------
-----------------------------------------------------------------------
-----------------------------------------------------------------------
--7--7--7-----7--7--7---7---7--7--7-----6--6--6-----6--6--6---6---2----
--5--5--5-----5--5--5---5---5--5--5-----4--4--4-----4--4--4---4---2----
------------------------------------------------------------------0----

--------------------------------------------------------------
--------------------------------------------------------------
--6~---------------------4--------------------------------6-7-
------------------------------7--6--------7-------------------
---------------------------------------------------7----------
--------------------------------------------------------------

-----------------------------------------------------------
--5---------------------7~---------------------------------
---------7-6-4~--------------------------------------------
-----------------------------------------------------------
-----------------------------------------------------------
-----------------------------------------------------------

-------------------------------------------
----------------7-9---10------9-7----------
----------------------------------9~-------
-------------------------------------------
-------------------------------------------
-------------------------------------------

----------------------------------------------------------------------------
----------------------------------------------------------------------------
----------------------------------------------------------------------------
----------------------------------------------------------------------------
--4--4--4-----4--4--4---4---4--4--4-----4--4--4-----4--4--4---4---4--4--4---
--2--2--2-----2--2--2---2---2--2--2-----2--2--2-----2--2--2---2---2--2--2---

-----------------------------------------------------------------------
-----------------------------------------------------------------------
-----------------------------------------------------------------------
--7--7--7-----7--7--7---7---7--7--7-----6--6--6-----6--6--6---6---2----
--5--5--5-----5--5--5---5---5--5--5-----4--4--4-----4--4--4---4---2----
------------------------------------------------------------------0----

----------------------------------------------------------------------------
----------------------------------------------------------------------------
----------------------------------------------------------------------------
----------------------------------------------------------------------------
--4--4--4-----4--4--4---4---4--4--4-----4--4--4-----4--4--4---4---4--4--4---
--2--2--2-----2--2--2---2---2--2--2-----2--2--2-----2--2--2---2---2--2--2---

-----------------------------------------------------------------------
-----------------------------------------------------------------------
-----------------------------------------------------------------------
--7--7--7-----7--7--7---7---7--7--7-----6--6--6-----6--6--6---6---2----
--5--5--5-----5--5--5---5---5--5--5-----4--4--4-----4--4--4---4---2----
------------------------------------------------------------------0----

----------------------------------------------------------------------------
----------------------------------------------------------------------------
----------------------------------------------------------------------------
----------------------------------------------------------------------------
--4--4--4-----4--4--4---4---4--4--4-----4--4--4-----4--4--4---4---4--4--4---
--2--2--2-----2--2--2---2---2--2--2-----2--2--2-----2--2--2---2---2--2--2---

-----------------------------------------------------------------------
-----------------------------------------------------------------------
-----------------------------------------------------------------------
--7--7--7-----7--7--7---7---7--7--7-----6--6--6-----6--6--6---6---2----
--5--5--5-----5--5--5---5---5--5--5-----4--4--4-----4--4--4---4---2----
------------------------------------------------------------------0----

----------------------------------------------------------------------------
----------------------------------------------------------------------------
----------------------------------------------------------------------------
----------------------------------------------------------------------------
--4--4--4-----4--4--4---4---4--4--4-----4--4--4-----4--4--4---4---4--4--4---
--2--2--2-----2--2--2---2---2--2--2-----2--2--2-----2--2--2---2---2--2--2---

-----------------------------------------------------------------------
-----------------------------------------------------------------------
-----------------------------------------------------------------------
--7--7--7-----7--7--7---7---7--7--7-----6--6--6-----6--6--6---6---2----
--5--5--5-----5--5--5---5---5--5--5-----4--4--4-----4--4--4---4---2----
------------------------------------------------------------------0----

--------------------------------------------------------------
--------------------------------------------------------------
--6~---------------------4--------------------------------6-7-
------------------------------7--6--------7-------------------
---------------------------------------------------7----------
--------------------------------------------------------------

-----------------------------------------------------------
--5---------------------7~---------------------------------
---------7-6-4~--------------------------------------------
-----------------------------------------------------------
-----------------------------------------------------------
-----------------------------------------------------------

-------------------------------------------
----------------7-9---10------9-7----------
----------------------------------9~-------
-------------------------------------------
-------------------------------------------
-------------------------------------------

-------------------------------------------------------------------
-------------------------------------------------------------------
-----------------------------------------------------------------
------------------------------7------------------------7----9----
---2--4---2--4---2--4---2--4---7------2--4---2--4---2---7----9-----
---0--2---0--2---0--2---0--2---5------0--2---0--2---0---5----7-----

--------------------------------------------
--------------------------------------------
-------------------------------------------
---------------------------8-9-11-9-8------
---9-11-11-11-11-11-11-9-11------------11-9-
--------------------------------------------

----------------------------------------
----------------------------------------
----------------------------------------
----------------------------------------
--9-11-11-11-11-11-11-9-11-9------------
-----------------------------11-10-9~---

-------------------------------------------
-------------------------------------------
-------------------------------------------
---------------------------8-9-11-9-8------
--9-11-11-11-11-11-11-9-11------------11-9-
-------------------------------------------

--------------------------------------------------------------
--------------------------------------------------------------
-------------------------------------------------------------
------------------------9-8------11-9-8----------------------
--9-11-11-11-11-11-11-9-----11-9--------11--------------------
--------------------------------------------------------------

------------------------------------------------------------------------
------------------------------------------------------------------------
------------------------------------------------------------------------
------------------------------------------------------------------------
------------------------------------------------------------------------
------------------------------------------------------------------------

------------------------------------------------------------------------
------------------------------------------------------------------------
------------------------------------------------------------------------
------------------------------------------------------------------------
------------------------------------------------------------------------
------------------------------------------------------------------------

------------------------------------------------------------------------
------------------------------------------------------------------------
------------------------------------------------------------------------
------------------------------------------------------------------------
------------------------------------------------------------------------
------------------------------------------------------------------------

------------------------------------------------------------------------
------------------------------------------------------------------------
------------------------------------------------------------------------
------------------------------------------------------------------------
------------------------------------------------------------------------
------------------------------------------------------------------------

------------------------------------------------------------------------
------------------------------------------------------------------------
------------------------------------------------------------------------
------------------------------------------------------------------------
------------------------------------------------------------------------
------------------------------------------------------------------------

--------------------------------------------------------
--------------------------------------------------------
--------------------------------------------------------
--------------------------------------------------------
--------------------2--2--2-----2--2--2---2---2--2--2---
--------------------0--0--0-----0--0--0---0---0--0--0---

----------------------------------------------------------------------------
----------------------------------------------------------------------------
----------------------------------------------------------------------------
----------------------------------------------------------------------------
--2--2--2-----2--2--2---2---2--2--2-----2--2--2-----2--2--2---2---2--2--2---
--0--0--0-----0--0--0---0---0--0--0-----0--0--0-----0--0--0---0---0--0--0---

----------------------------------------------------------------------------
----------------------------------------------------------------------------
----------------------------------------------------------------------------
----------------------------------------------------------------------------
--2--2--2-----2--2--2---2---2--2--2-----7--7--7-----7--7--7---7---7--7--7---
--0--0--0-----0--0--0---0---0--0--0-----5--5--5-----5--5--5---5---5--5--5---

----------------------------------------------------------------------------
----------------------------------------------------------------------------
----------------------------------------------------------------------------
----------------------------------------------------------------------------
--7--7--7-----7--7--7---7---7--7--7-----2--2--2-----2--2--2---2---2--2--2---
--5--5--5-----5--5--5---5---5--5--5-----0--0--0-----0--0--0---0---0--0--0---

----------------------------------------------------------------------------
----------------------------------------------------------------------------
----------------------------------------------------------------------------
----------------------------------------6--6--6--6--6--6--6--6--6--6--6--6--
--2--2--2-----2--2--2---2---2--2--2-----4--4--4--4--4--4--4--4--4--4--4--4--
--0--0--0-----0--0--0---0---0--0--0-----------------------------------------

----------------------------------------------------------------------------
----------------------------------------------------------------------------
----------------------------------------------------------------------------
--6--6--6--6--6--6--6--6--6--4--4--4----2--2--2--2--2--2--2--2--2--2--2--2--
--4--4--4--4--4--4--4--4--4--2--2--2----0--0--0--0--0--0--0--0--0--0--0--0--
----------------------------------------------------------------------------

----------------------------------------------------------------------------
----------------------------------------------------------------------------
----------------------------------------------------------------------------
--2--2--2--2--2--2--2--2--2--4--4--4----6--6--6--6--6--6--6--6--6--6--6--6--
--0--0--0--0--0--0--0--0--0--2--2--2----4--4--4--4--4--4--4--4--4--4--4--4--
----------------------------------------------------------------------------

-----------------------------------------------------------------------------
-----------------------------------------------------------------------------
-----------------------------------------------------------------------------
--6--6--6--6--6--6--6--6--6--4--4--4----2------4------6----------------------
--4--4--4--4--4--4--4--4--4--2--2--2----0------2------4----------------------
-----------------------------------------------------------------------------

----------------------------------------------------------------------------
----------------------------------------------------------------------------
----------------------------------------------------------------------------
----------------------------------------------------------------------------
--2--2--2-----2--2--2---2---2--2--2-----2--2--2-----2--2--2---2---2--2--2---
--0--0--0-----0--0--0---0---0--0--0-----0--0--0-----0--0--0---0---0--0--0---

---------------------------------------------------------------
---------------------------------------------------------------
---------------------------------------------------------------
---------------------------------------------------------------
--2--2--2-----2--2--2---2---2--2--2-----2--2---2---2----14/--2-
--0--0--0-----0--0--0---0---0--0--0-----0--0---0---0----12/--0-

--------------------------------------------------------------------------
--------------------------------------------------------------------------
--------------------------------------------------------------------------
--2------------------------------------2----------------------------------
--2------------------------------------2----------------------------------
--0------------------------------------0----------------------------------

--------------------------------------------------------------------------
--------------------------------------------------------------------------
--6------------------------------------2----------------------------------
--6------------------------------------2----------------------------------
--4------------------------------------0----------------------------------
--------------------------------------------------------------------------

--------------------------------------------------------------------------
--------------------------------------------------------------------------
--6------------------------------------2----------------------------------
--6------------------------------------2----------------------------------
--4------------------------------------0----------------------------------
--------------------------------------------------------------------------

--------------------------------------------------------------------------
--------------------------------------------------------------------------
--------------------------------------------------------------------------
--2------------------------------------2----------------------------------
--2------------------------------------2----------------------------------
--0------------------------------------0----------------------------------

--------------------------------------------------------------------------
--------------------------------------------------------------------------
--6------------------------------------2----------------------------------
--6------------------------------------2----------------------------------
--4------------------------------------0----------------------------------
--------------------------------------------------------------------------

--------------------------------------------------------------------------
--------------------------------------------------------------------------
--6------------------------------------2----------------------------------
--6------------------------------------2----------------------------------
--4------------------------------------0----------------------------------
--------------------------------------------------------------------------

--------------------------------------------------------------------------
--------------------------------------------------------------------------
--------------------------------------------------------------------------
--2------------------------------------2----------------------------------
--2------------------------------------2----------------------------------
--0------------------------------------0----------------------------------

--------------------------------------------------------------------------
--------------------------------------------------------------------------
--6------------------------------------2----------------------------------
--6------------------------------------2----------------------------------
--4------------------------------------0----------------------------------
--------------------------------------------------------------------------

--------------------------------------------------------------------------
--------------------------------------------------------------------------
--6------------------------------------2----------------------------------
--6------------------------------------2----------------------------------
--4------------------------------------0----------------------------------
--------------------------------------------------------------------------]
Добавлено: 17.04.2014
Другие материалы по этой песне:

Страница создана 22.03.2012
http://primanota.ru/nightwish/passion-and-opera-chords.htm
Привет, Гость.
Предлагаем пройти революционный курс по гитаре.
Подарок от PrimaNota.Ru, забирай!