PrimaNota.ru - самый крупный в мире бесплатный архив песенных текстов, аккордов, табулатур и нот


Nightwish - Our Decades In The Sun - аккорды и текст, видео

Регистрация Запомнить меня
Войти через:  Facebook Google Twitter Vk Yandex Mail.ru

Nightwish - Our Decades In The Sun - аккорды и текст, видео

Печатать
Просмотров: 147
Авторы музыки: Marco Hietala, Tuomas Holopainen
Авторы текста: Tuomas Holopainen
Our Decades In The Sun
Nightwish
ORDER: I V1 C INT1 C INT2 B INT3 INT4 V2 C C O


[INTRO]
Dsus4 Ebsus2 Dsus4 Ebsus2


[VERSE 1]
G7sus2                    Ebadd9/G
       I climbed off your back
G7sus2              Ebadd9/G
       Not so long ago
Cm                   Gm
       To a blooming meadow
Cm                                  Eb/Bb    F/A
       To a path you'd made for the lightest feet


[CHORUS 1]
Gm Fadd9
Mo-ther
     Eb              Bb/D Dm
I am always close to you
Cm        Bb           F/A           F
I will be waving every time you leave
    Dm   Gm  Cm/Eb
Oh, I am you
              F             Bb
The care, the love, the memories
Cm         Dm       Gm
We are the story of one

Emppu's transition riff:
d|-----------------|-------|
A|-----------------|-------|
F|-4p2-0---2---4---|-0-----|
C|-----------------|-----2-|(ring)
G|-----------------|-------|
D|-----------------|-------|
   4   e   +   a     1   e


[INTERLUDE 1]

Piano riff:
d|--------^8---7---5---5-----------|-------------|
A|--------|8-------5-----8-7---5---|-------------|
F|--------|9-------5-------7---4---|-------------|
C|-------------------------7---5---|-------------|
G|---------------------------------|-------------|
D|---------------------------------|-------------|
   1 e + a 2 e + a 3 e + a 4 e + a   1  2  3  4
          Bb/D Dm Gm/D    C/D  Dm

d|--------^8---7---12---14-12-10--------|-------------|
A|--------|8-------13---13----10---12---|-------------|
F|--------|9-------12---12----11---12---|-------------|
C|---------------------------------14---|-------------|
G|--------------------------------------|-------------|
D|--------------------------------------|-------------|
   1 e + a 2 e + a 3  e +  a  4  e +  a   1  2  3  4
          Bb/D Dm  Bb/D       C/D  Dm

d|--------^8---7---5---5-----------|-------------|
A|--------|8-------5-----8-7---5---|-------------|
F|--------|9-------5-------7---5---|-------------|
C|-------------------------7---5---|-------------|
G|---------------------------------|-------------|
D|---------------------------------|-------------|
   1 e + a 2 e + a 3 e + a 4 e + a   1  2  3  4
          Bb/D Dm Gm/D    C/D Bb/D

d|--------^5---3---2---0-----------|-------------|
A|--------|5-------3-----3-0---5---|-------------|
F|--------|5-------2-------0---4---|-------------|
C|-------------------------2---5---|-------------|
G|---------------------------------|-------------|
D|---------------------------------|-------------|
   1 e + a 2 e + a 3 e + a 4 e + a   1  2
          Gm/D    C/D      Dm


[CHORUS 2]
Gm Fadd9
Fa-ther
     Eb              Bb/D Dm
I am always close to you
Cm        Bb           F/A           F
I will be waving every time you leave
    Dm   Gm  Cm/Eb
Oh, I am you
              F             Bb
The care, the love, the memories
Cm         Dm  Eb
You are forever  in me


[INTERLUDE 2] - 6/8
Gm   Eb/G | Gmadd9   Bb F
Gm   Eb/G | Gmadd9   F  Eb
Gm   Eb/G | Gmadd9   Bb F
Gm   Eb/G | Gmadd9   F  Eb


[BRIDGE] - 6/8
Dm   Bb/D     Dm   F C/D
This verse we wrote
Dm Bb/D     Dm    C Bb
On a   road home 
Dm Bb/D Dm        F C/D
For     you
Dm  Bb/D     Dm   C Bb
All this for you


[INTERLUDE 3] - 6/8
Gm   Eb/G | Gmadd9   Bb F
Gm   Eb/G | Gmadd9   F  Eb
Gm   Eb/G | Gmadd9   Bb F
Gm   Eb/G | Gmadd9   F  Eb


[INTERLUDE 4] - 4/4, intro
Gsus2 Ebadd9/G Gsus2 Ebadd9/G


[VERSE 2]
G7sus2                      Ebadd9/G
       Our walk has been sublime
G7sus2                           Ebadd9/G
       A soaring ride and gentle lead
Cm                             Gm
       You have the heart of a true friend
Cm                           Eb/Bb       F/A
       One day we'll meet on that shore again


[CHORUS 3]
Cm Bbadd9
Mo-ther
     Ab              Eb/G Gm
I am always close to you
Fm        Eb           Bb/D          Bb
I will be waving every time you leave
    Gm   Cm  Fm/Ab
Oh, I am you
              Bb            Eb
The care, the love, the memories
Fm         Gm   Ab
We are the story of one, oh


[CHORUS 4]
Cm Bbadd9
Fa-ther
     Ab              Ebadd9/G Gm
I am always close to you
Fm        Eb           Bb/D          Bb
I will be waving every time you leave
    Gm   Cm  Fm7/Ab
Oh, I am you
              Bb            Eb
The care, the love, the memories
Fm         Gm      Cm
You are forever in me


[OUTRO]
Piano riff:
d|--------^8---7---5---5-----------|-------------|
A|--------|8-------5-----8-7---5---|-------------|
F|--------|9-------5-------7---4---|-------------|
C|-------------------------7---5---|-------------|
G|---------------------------------|-------------|
D|---------------------------------|-------------|
   1 e + a 2 e + a 3 e + a 4 e + a   1  2  3  4
          Bb/D Dm Gm/D    C/D  Dm

d|--------^8---7---12---14-12-10--------|-------------|
A|--------|8-------13---13----10---12---|-------------|
F|--------|9-------12---12----11---12---|-------------|
C|---------------------------------14---|-------------|
G|--------------------------------------|-------------|
D|--------------------------------------|-------------|
   1 e + a 2 e + a 3  e +  a  4  e +  a   1  2  3  4
          Bb/D Dm  Bb/D       C/D  Dm

d|--------^8---7---5---5-----------|-------------|
A|--------|8-------5-----8-7---5---|-------------|
F|--------|9-------5-------7---5---|-------------|
C|-------------------------7---5---|-------------|
G|---------------------------------|-------------|
D|---------------------------------|-------------|
   1 e + a 2 e + a 3 e + a 4 e + a   1  2  3  4
          Bb/D Dm Gm/D    C/D Bb/D

d|--------^5---3---2---0-----------|-------------|
A|--------|5-------3-----3-0---5---|-------------|
F|--------|5-------2-------0---4---|-------------|
C|-------------------------2---5---|-------------|
G|---------------------------------|-------------|
D|---------------------------------|-------------|
   1 e + a 2 e + a 3 e + a 4 e + a   1  2  3  4
          Gm/D    C/D      Dm



d|--------^8---7---5---5-----------|-------------|
A|--------|8-------5-----8-7---5---|-------------|
F|--------|9-------5-------7---4---|-------------|
C|-------------------------7---5---|-------------|
G|---------------------------------|-------------|
D|---------------------------------|-------------|
   1 e + a 2 e + a 3 e + a 4 e + a   1  2  3  4
          Bb/D Dm Gm/D    C/D  Dm

d|--------^8---7---12---14-12-10--------|-------------|
A|--------|8-------13---13----10---12---|-------------|
F|--------|9-------14---------11---12---|-------------|
C|---------------------------------14---|-------------|
G|--------------------------------------|-------------|
D|--------------------------------------|-------------|
   1 e + a 2 e + a 3  e +  a  4  e +  a   1  2  3  4
          Bb/D Dm  Gm/D       C/D  Dm

d|--------^8---7---5---5-----------|-------------|
A|--------|8-------5-----8-7---5---|-------------|
F|--------|9-------5-------7---5---|-------------|
C|-------------------------7---5---|-------------|
G|---------------------------------|-------------|
D|---------------------------------|-------------|
   1 e + a 2 e + a 3 e + a 4 e + a   1  2  3  4
          Bb/D Dm Gm/D    C/D Bb/D


rit.
d|--------^5---3---2---0-----------|-------------|
A|--------|5-------3-----3-0---5---|-------------|
F|--------|5-------2-------0---4---|-------------|
C|-------------------------2---5---|-------------|
G|-----------------------------x---|-------------|
D|-----------------------------0---|-------------|
   1 e + a 2 e + a 3 e + a 4 e + a   1  2  3  4
          Gm/D    C/D      Dm
Добавлено: 18.09.2015
Другие материалы по этой песне:
  • Аккорды и текст

Страница создана 18.09.2015
http://primanota.ru/nightwish/our-decades-in-sun-chords.htm
Привет, Гость.
Предлагаем пройти революционный курс по гитаре.
Подарок от PrimaNota.Ru, забирай!