PrimaNota.ru - самый крупный в мире бесплатный архив песенных текстов, аккордов, табулатур и нот


Nightwish - Oceanborn (album) - таба, видео

Регистрация Запомнить меня
Войти через:  Facebook Google Twitter Vk Yandex Mail.ru

Nightwish - Oceanborn (album) - таба, видео

Печатать
Просмотров: 288
Уроки эстрадного вокала в Санкт-Петербурге
OCEANBORN ALBUM BY NIGHTWISH
TABBER: EMPPU_JR.
1:Stargazers
2:Gethsemane
3:Devil & The Deep Dark Ocean
4:Sacrament of Wilderness
5:Passion And The Opera
6:Swanheart
7:Moondance(instrumental)
8:The Riddler
9:The Pharaoh Sails To Orion
10:Walking in the Air
11:Nightquest
12:Sleeping Sun

I'v spend a lot of time on this tab so I'll hope you enjoy and please rate!

1:STARGAZERS:

p.m    . . . .       . . . .       . . . .
e:--------------------------------------------------|
B:--------------------------------------------------|
G:--------------------------------------------------|
D:--------------------------------------------8--5--|
A:-----5-5-5-5-3-----5-5-5-5-3-----5-5-5-5-3--6--3--|
E:-----3-3-3-3-1-----3-3-3-3-1-----3-3-3-3-1--------|

p.m    . . . .       . . . .       . . . .
e:--------------------------------------------------|
B:--------------------------------------------------|
G:--------------------------------------------------|
D:--------------------------------------------8-----|
A:-----5-5-5-5-3-----5-5-5-5-3-----5-5-5-5-3--6--3--|
E:-----3-3-3-3-1-----3-3-3-3-1-----3-3-3-3-1-----1--|

guit/keyb. riff:

e:-----------------------------------------5-6-5---10-8-6-5-8-6-5------10-8-6-|
B:-------------------------7-8-7-------7-8-------8-----------------6-8--------|
G:-----4-5-7-8-7-5-4-5-7-8-------8-7-8---------------------------8------------|
D:-5-6------------------------------------------------------------------------|
A:----------------------------------------------------------------------------|
E:----------------------------------------------------------------------------|

6-5-6------------------|
6-5-6------------------|
------8---10---8---7---|
-----------------------|
-----------------------|
-----------------------|

e:-----------------------------------------5-6-5---10-8-6-5-8-6-5-|
B:-------------------------7-8-7-------7-8-------8----------------|
G:-----4-5-7-8-7-5-4-5-7-8-------8-7-8----------------------------|
D:-5-6------------------------------------------------------------|
A:----------------------------------------------------------------|
E:----------------------------------------------------------------|


1st:

e:-------10-8-6-5-6-8-6-8-5-5-3-5-1-|
B:---6-8----------------------------|
G:-8--------------------------------|
D:----------------------------------|
A:----------------------------------|
E:----------------------------------|

2nd:

e:----------13-11-10-11----10-11-10-11-8-8-6-8-5-|
B:----10-11-------------13-----------------------|
G:-12--------------------------------------------|
D:-----------------------------------------------|
A:-----------------------------------------------|
E:-----------------------------------------------|

Rhythm guitar:

p.m all the way..
e:-------------------------------------------------------------|
B:-------------------------------------------------------------|
G:-------------------------------------------------------------|
D:-------------------------------------------------------------|
A:-----------5*--------6*---3*-------------5*--------6*--------|
E:-3*---4*--------3*-------------3*---4*--------3*--------1*---|

Intro riff:

p.m    . . . .       . . . .       . . . .
e:---------------------------------------------------|
B:---------------------------------------------------|
G:---------------------------------------------------|
D:--------------------------------------------8------|
A:-----5-5-5-5-3-----5-5-5-5-3-----5-5-5-5-3--6--3---|
E:-----3-3-3-3-1-----3-3-3-3-1-----3-3-3-3-1-----1---|

guitar 1:

e:------------------8---10--8--10h11p10-|
B:-11-10-8----11-10---------------------|
G:---------7----------------------------|
D:--------------------------------------|
A:--------------------------------------|
E:--------------------------------------|

guitar 2:

e:-----------------------/6--5--6h8p6---|
B:--------------------------------------|
G:--------------------------------------|
D:--------------------------------------|
A:--------------------------------------|
E:--------------------------------------|

guitar 1:

e:------------------8---10-8--------------|
B:-11-10-8----11-10----------11-10--6-/8--|
G:---------7------------------------------|
D:----------------------------------------|
A:----------------------------------------|
E:----------------------------------------|

guitar 2:

e:----------------------13-11-10----13-/15--|
B:-------------------------------10---------|
G:------------------------------------------|
D:------------------------------------------|
A:------------------------------------------|
E:------------------------------------------|

guitar 3:

e:----------------------------------|
B:----------------------------------|
G:----------------------------------|
D:-5---3---3-----5----5---3---3--7--|
A:-5---3---1--3--5----5---3---1--5--|
E:-3---1------1--3----3---1---------|

Verse:

A grand oasis..

p.m                 .                    .     ... ... ... . . .     . .
e:-----------------------------------------------------------------------|
B:-----------------------------------------------------------------------|
G:----------8---3-------------------8------------------------------------|
D:-5---6-5--8---3-3---3----5---6-5--8--3---3-------------------3-5p3-----|
A:-5---6-5--6---1-3---3----5---6-5--6--3---3---------------3-5-------5-3-|
E:-3---4-3--------1-1-1-2--3---4-3-----1-1-1-2-333-333-333---------------|

Chorus:

Tragedienne of heavens..

p.m  .      .    . . .    .      .    . . . .   .      .      .   . . . . . .
e:----------------------------------------------------------------------------|
B:----------------------------------------------------------------------------|
G:----------------------3---3-------------------------------------------------|
D:-5------3-------------1-1-1--3---3----------5------5------3-----3-----------|
A:-3-3*---1-1*---1-3-1---------1-1-1--3-3-3-3-3-3*---3-3*---1-1*--1-1-1-1-1-3-|
E:----------------------------------------------------------------------------|

.   .     .
-------------------|
-------------------|
--3---3--------5---|
--1-1-1--------5---|
1-------5---5--3---|
--------3-3-3------|

guitar 1:

e:------------------8---10--8--10h11p10-|
B:-11-10-8----11-10---------------------|
G:---------7----------------------------|
D:--------------------------------------|
A:--------------------------------------|
E:--------------------------------------|

guitar 2:

e:-----------------------/6--5--6h8p6---|
B:--------------------------------------|
G:--------------------------------------|
D:--------------------------------------|
A:--------------------------------------|
E:--------------------------------------|

guitar 1:

e:------------------8---10-8--------------|
B:-11-10-8----11-10----------11-10--6-/8--|
G:---------7------------------------------|
D:----------------------------------------|
A:----------------------------------------|
E:----------------------------------------|

guitar 2:

e:----------------------13-11-10----13-/15--|
B:-------------------------------10---------|
G:------------------------------------------|
D:------------------------------------------|
A:------------------------------------------|
E:------------------------------------------|

guitar 3:

e:----------------------------------|
B:----------------------------------|
G:----------------------------------|
D:-5---3---3-----5----5---3---3--7--|
A:-5---3---1--3--5----5---3---1--5--|
E:-3---1------1--3----3---1---------|

Verse:

Floating upon the quiet hydrogen lakes..

p.m                 .                     .   ... ... ... . . .     . .
e:---------------------------------------------------------------------|
B:---------------------------------------------------------------------|
G:----------8---3-------------------8----------------------------------|
D:-5---6-5--8---3-3---3---5------5--8--3---3-----------------3-5p3-----|
A:-5---6-5--6---1-3---3---5------5--6--3---3-------------3-5-------5-3-|
E:-3---4-3--------1-1-1-2-3---4~-3-----1-1-1-333-333-333---------------|

Chorus:

Tragedienne of heavens..

p.m  .      .    . . .    .      .    . . . .   .      .      .   . . . . . .
e:----------------------------------------------------------------------------|
B:----------------------------------------------------------------------------|
G:----------------------3---3-------------------------------------------------|
D:-5------3-------------1-1-1--3---3----------5------5------3-----3-----------|
A:-3-3*---1-1*---1-3-1---------1-1-1--3-3-3-3-3-3*---3-3*---1-1*--1-1-1-1-1-3-|
E:----------------------------------------------------------------------------|

.   .     .        . . . .
---------------------------|
---------------------------|
--3---3--------5-----------|
--1-1-1--------5-----------|
1-------5---5--3---6-5-3---|
--------3-3-3------------6-|

guitar 1:

e:------------------8---10--13-11-10----|
B:-11-10-8----11-10------------------8--|
G:---------7----------------------------|
D:--------------------------------------|
A:--------------------------------------|
E:--------------------------------------|

guitar 2:

e:-----------------------/6--5--6h8p6---|
B:--------------------------------------|
G:--------------------------------------|
D:--------------------------------------|
A:--------------------------------------|
E:--------------------------------------|

guitar 1:

e:------------------8---10-8--------------|
B:-11-10-8----11-10----------11-10--6-/8--|
G:---------7------------------------------|
D:----------------------------------------|
A:----------------------------------------|
E:----------------------------------------|

guitar 2:

e:----------------------13-11-10----13-/15--|
B:-------------------------------10---------|
G:------------------------------------------|
D:------------------------------------------|
A:------------------------------------------|
E:------------------------------------------|


guitar 3:

e:----------------------------------|
B:----------------------------------|
G:----------------------------------|
D:-4---3---3-----5----5---3---3--7--|
A:-4---3---1--3--5----5---3---1--5--|
E:-3---1------1--3----3---1---------|

Oracle of the Delfian Dominie..

p.m. .    . .      . .   . .  .
e:-----------------------------------|
B:-----------------------------------|
G:-----------------------------------|
D:-5-5\\---5-5---6--5-5---5-5----9---|
A:-5-5\\---5-5---4--5-5---5-5----7---|
E:-3-3\\---3-3------3-3---3-3--3-----|

 Wanderers in cosmic caravan..

p.m   . . .  . . .  . . .  . . .  . . .  . . .  . . .
e:------------------------------------------------------------|
B:------------------------------------------------------------|
G:------------------------------------------------------------|
D:-5--5-5-5--5-5-5--5-5-5--5-5-5--5-5-5--5-5-5--5-5-5--3-5\\--|
A:-5--5-5-5--5-5-5--5-5-5--5-5-5--5-5-5--5-5-5--5-5-5--3-5\\--|
E:-3--3-3-3--3-3-3--3-3-3--3-3-3--3-3-3--3-3-3--3-3-3--1-3\\--|

e:------|
B:------|
G:------|
D:-5----|
A:-5----|
E:-3----|

p.m. . .  .  . . .  . . . . .  . . .  .  . . .
e:-------------------------------------------------|
B:-------------------------------------------------|
G:-----------------------------------------------2-|
D:---------------------------------------------2-0-|
A:-2-2-2--2--2-2-2--2-2-2-2-2--2-2-2--2--2-2-2-0---|
E:-0-0-0--0--0-0-0--0-0-0-0-0--0-0-0--0--0-0-0-----|

   . . .  .  . . .  . . . . .  . . .  .  . . . . .
e:-------------------------------------------------|
B:-------------------------------------------------|
G:-------------------------------------------------|
D:-------------------------------------------------|
A:-2-2-2--2--2-2-2--2-2-2-2-2--2-2-2--2--2-2-2-----|
E:-0-0-0--0--0-0-0--0-0-0-0-0--0-0-0--0--0-0-0-3-3-|

Keyboard solo:

e:---------------------|
B:---------------------|
G:---------------------|
D:-7----3----7----3----|
A:-7----3----7----3----|
E:-5----1----5----1----|

A son in search for the truth

p.m   . . .  . . .  . . .  . . .  . . .  . . .  . . .       . . .  . . .  . .
e:----------------------------------------------------------------------------|
B:----------------------------------------------------------------------------|
G:----------------------------------------------------------------------------|
D:-5--5-5-5--5-5-5--5-5-5--5-5-5--5-5-5--5-5-5--5-5-5--3-5--5-5-5--5-5-5--5-5-|
A:-5--5-5-5--5-5-5--5-5-5--5-5-5--5-5-5--5-5-5--5-5-5--3-5--5-5-5--5-5-5--5-5-|
E:-3--3-3-3--3-3-3--3-3-3--3-3-3--3-3-3--3-3-3--3-3-3--1-3--3-3-3--3-3-3--3-3-|

.  . .     . . . . .
---------------------|
---------------------|
---------------------|
5--5-5-5---3-3-3-5-5-|
5--5-5-5---1-1-1-3-3-|
3--3-3-3-------------|

Discovering the origin of dreams

p.m   . . .  . . .  . . .  . . .  . . .  . . .  . . .
e:-------------------------------------------------------------|
B:-------------------------------------------------------------|
G:-------------------------------------------------------------|
D:-5--5-5-5--5-5-5--5-5-5--5-5-5--5-5-5--5-5-5--5-5-5--3-5\\---|
A:-5--5-5-5--5-5-5--5-5-5--5-5-5--5-5-5--5-5-5--5-5-5--3-5\\---|
E:-3--3-3-3--3-3-3--3-3-3--3-3-3--3-3-3--3-3-3--3-3-3--1-3\\---|

Stargazers ride through the ancient realms

e:-----
B:-----
G:-----
D:-5---
A:-5---
E:-3---

p.m. . .  .  . . .  . . . . .  . . .  .  . . .
e:-------------------------------------------------|
B:-------------------------------------------------|
G:-----------------------------------------------2-|
D:---------------------------------------------2-0-|
A:-2-2-2--2--2-2-2--2-2-2-2-2--2-2-2--2--2-2-2-0---|
E:-0-0-0--0--0-0-0--0-0-0-0-0--0-0-0--0--0-0-0-----|

   . . .  .  . . .  . . . . .  . . .  .  . . . . .
e:-------------------------------------------------|
B:-------------------------------------------------|
G:-------------------------------------------------|
D:-------------------------------------------------|
A:-2-2-2--2--2-2-2--2-2-2-2-2--2-2-2--2--2-2-2-----|
E:-0-0-0--0--0-0-0--0-0-0-0-0--0-0-0--0--0-0-0-3-3-|



Guitar solo:

guitar 1:

e:-------------------------------------------------------------------|
B:------------------10-12-13--12--10h12p10----10---------------------|
G:----------9-10-12------------------------9------12--10--9h10p9-----|
D:-9-10-12-------------------------------------------------------10--|
A:-------------------------------------------------------------------|
E:-------------------------------------------------------------------|

e:----------------------------------------10-12-15--13-12h13p12--------|
B:-------------------------------10-12-13-----------------------13--\\-|
G:-----------------------9-10-12---------------------------------------|
D:-9-10----------9-10-12-----------------------------------------------|
A:------12-10-12-------------------------------------------------------|
E:---------------------------------------------------------------------|

guitar 2:

e:---------------------|
B:---------------------|
G:---------------------|
D:-7----3----7----3----|
A:-7----3----7----3----|
E:-5----1----5----1----|

p.m.    . .    . .    . .    . .    . .    .
e:---------------------------------------------------|
B:---------------------------------------------------|
G:---------------5-5-------------------------3--5----|
D:--------3-3----3-3--3-5-5-----------3-3----1--3----|
A:-5-5----1-1--1--------3-3--3-5-5----1-1--1------5--|
E:-3-3--3----------------------3-3--3-------------3--|

e:-------------------------|
B:-------------------------|
G:-----3-----5-----3--3--5-|
D:--5--3--3--5--5--3--1--3-|
A:--5--1--3--3--5--1-------|
E:--3-----1-----3----------|

guitar 1:

e:-------------------|
B:-------------------|
G:-------------------|
D:-5---3--0----------|
A:------------1------|
E:---------------3---|

guitar 2:

e:-------------------|
B:-------------------|
G:-------------------|
D:-8---7--5------5---|
A:------------5------|
E:-------------------|

Flute...

e:----------|
B:----------|
G:-8-----5--|
D:-8--5--5--|
A:-6--5--3--|
E:----3-----|

Chorus:

Tragedienne of heavens..

guitar 1:

e:------------------8---10--8--10h11p10-|
B:-11-10-8----11-10---------------------|
G:---------7----------------------------|
D:--------------------------------------|
A:--------------------------------------|
E:--------------------------------------|

guitar 1:

e:------------------8---10-8--------------|
B:-11-10-8----11-10----------11-10--6-/8--|
G:---------7------------------------------|
D:----------------------------------------|
A:----------------------------------------|
E:----------------------------------------|

guitar 2:

e:--------------------------------------|
B:--------------------------------------|
G:--------------------------------------|
D:-5---3---3-----5----5---3---3--7--5---|
A:-5---3---1--3--5----5---3---1--5--5---|
E:-3---1------1--3----3---1---------3---|

Guit/keyb. riff:

e:-----------------------------------------5-6-5---10-8-6-5-8-6-5-|
B:-------------------------7-8-7-------7-8-------8----------------|
G:-----4-5-7-8-7-5-4-5-7-8-------8-7-8----------------------------|
D:-5-6------------------------------------------------------------|
A:----------------------------------------------------------------|
E:----------------------------------------------------------------|

1st:

e:-------10-8-6-5-6-8-6-8-5-5-3-5-1-|
B:---6-8----------------------------|
G:-8--------------------------------|
D:----------------------------------|
A:----------------------------------|
E:----------------------------------|

2nd:

e:----------13-11-10-11----10-11-10-11-8-8-6-8-5-|
B:----10-11-------------13-----------------------|
G:-12--------------------------------------------|
D:-----------------------------------------------|
A:-----------------------------------------------|
E:-----------------------------------------------|

Rhythm guitar:

p.m all the way..
e:-------------------------------|
B:-------------------------------|
G:-------------------------------|
D:-------------------------------|
A:-----------5*--------6*---8*---|
E:-3*---4*--------3*-------------|

end:

p.m. . . .  . . .
e:--------------------|
B:--------------------|
G:--------------------|
D:----------------5---|
A:----------5-5-5-5---|
E:-3-3-3-3--3-3-3-3---|

2: Gethsemane


    |-----------------------12----------------------------------------------|
    |----------------8-12-8----------12-10-12-8-12-7-12---12-10-12-8-12-7-12|
    |---------9----9---------------9--------------------9-------------------|
    |---5-9-5---------------------------------------------------------------|
    |-7---------------------------------------------------------------------|
    |-----------------------------------------------------------------------|

    |----------------------------------|-----------------------------------|
    |---12-10-12-8-12-7-12-------------|----------------------------13-----|
    |-9--------------------9---8---9~--|---------------------9-12-9--------|
    |----------------------------------|-------------10---10---------------|
    |----------------------------------|------7-10-7-----------------------|
    |----------------------------------|-8--8------------------------------|

    |-----------------------------------------------------------------------|
    |-----------------------------------------------------------------------|
    |---5--4-2-4-2----------2---4-2------4--------------4-----4--2----------|
    |--------------5|2--4-5---5-----5-4--4--------------4-----4--2--5--4--2-|
    |-3----------------------------------2----2-.-.-.-2-2-----2--0--5--4--2-|
    |---------------------------------------------------------------3--2--0-|


    \"Told no bell for..\"  \"But let this cup of suffering pass from me\"

    |-----------------------------------------------------------------------|
    |-----------------------------------------------------------------------|
    |--------------------|-4-2-------2-2-2--------5-------------------------|
    |-2--2-2--2-2-2--2-2-|-4-2-------2-2-2--------5-------------------------|
    |-2--2-2--2-2-2--2-2-|-2-0--0-0--0-0-0--0-0---3------5s--3s--5s--7~--7--|
    |-0--0-0--0-0-0--0-0-|-----------------------------------------------0--|

    \"..done...\"                               \"The Lord weeps for me\"

    |-------------------------------------------------------------------|
    |-------------------------------------------------------------------|
    |-2-----------------------------5----7----5-------------7--2--------|
    |-2-----------------------------5----7----5-------------7--2--------|
    |-0--0---0---0-0-0---0---0-0----3----5----3-------------5--0--------|
    |-------------------------------------------------------------------|

    \"But my tears fall for you\"

    |------------------------------------------------------------------|
    |------------------------------------------------------------------|
    |--7------------------------------------------7--------------------|
    |--7-------------7----------------------------7--------------------|
    |--5-------------7--------------7-7-7-.-.-.---5--------------------|
    |----------------5-------------------------------------------------|

    (Before flute solo)

    |-----------------------------------------------------------------------|
    |-----------------------------------------------------------------------|
    |-----------------------------------------------------------------------|
    |---------------------------------4s3-----------------------------------|
    |-4---4-4---4---4-4---4---4-4-4-4-----4---4-4---4---4-4|4h5p4---4-------|
    |-------------------------------------------------------------7---7-5-4-|

    |------------------------------------------------------------|
    |------------------------------------------------------------|
    |------------------------------------------------------------|
    |---------------------------------4s3-------------------5-4--|
    |-4---4-4---4---4-4---4---4-4-4-4-------6---6----7--7-7-3-2--|
    |---------------------------------------4---4----5--5-5------|

    |-----------------------|
    |-----------------------|
    |-----------------------|
    |------------------7s<--|
    |--6---6----5--5-5-5s<--|
    |--4---4----3--3-3------|

    (Flute solo background [play 2x])

    7x.........                3x......
    |--------------------------------------------------------------------|
    |--------------------------------------------------------------------|
    |---------|--------|------|--------|-------4-----4--5----------------|
    |-6-------|-6-<-4--|-6----|-6------|-2-----4-----4--5----------------|
    |-4--4-4--|-4-<-2--|-4----|-4--4-4-|-2-----2-----2--3----------------|
    |---------|--------|------|--------|-0-------------------------------|

(==Violins & Tarja==)
                                             \"I knew you never before\"

|------------------------------|-------------------------------------|
|------------------------------|-------------------------------------|
|------------------------------|--7--7---5------5------5------5------|
|-2---------2---------2--------|--7--7---5------5------5------5------|
|-2---------2---------2--------|--5--5---3--3-3-3--3-3-3--3-3-3--3-3-|
|-0---------0-0-.-.-.-0-0-.-.--|-------------------------------------|


|---------------|
|---------------|
|----s7---s9----|
|x2--s7---s9----|
|----s5---s7----|
|---------------|
                      \"But the love..\"

|-----------------------------------------------------------------------|
|-----------------------------------------------------------------------|
|-5-4-----------------------------9---7s9-7s9----5-4--------------------|
|-----7-5-4-------2----4~--5~-----9---7s9-7s9--------7-5-4--------------|
|-----------7-5-------------------7---5s7-5s7-----------------7---------|
|-----------------------------------------------------------------------|

    \"Have made you mine, \'till all my years are gone\"

|-----------------------------------------------------------------------|
|-----------------------------------------------------------------------|
|--7---------------------------------------------7--------9s<-----------|
|--7-------------7-------------------------------7--------9s<-----------|
|----------------5------------------------------------------------------|
|--5-------------7--------------7-7-7-.-.-.------5--------7s<-----------|

(==\"Without you / The poetry within me is dead\"==)

|-----------------------------------------------------------------------|
|-----------------------------------------------------------------------|
|--7----------------5-----------------7---------2------2----------------|
|--7------2---------5-----------------7---------2------2----------------|
|--5------2---------3-.-.-.---0--2-3--5-.-.-.---0------0----------------|
|---------0-.-.-.-------------------------------------------------------|

|-----------------------------------------------------------------------|
|-----------------------------------------------------------------------|
|------------------------2--4--5----2---4---5---4---2--2---4---2--------|
|-2--------2~---4~---5~-------------------------------------------4-----|
|-2---------------------------------------------------------------5-----|
|-0---------------------------------------------------------------------|

|-----------------------------------------------------------------------|
|-----------------------------------------------------------------------|
|-----------------------------------------------------------------------|
|-5----------------7----------------------------------------------------|
|-5----------------7----------------------------------------------------|
|-3----------------5----------------------------------------------------|

(==Guitar solo==)

A beta version of the end theme.. (it has two guitars, this is one)

|-----------------15---------15----15--18--22--18--15-----------15------|
|--------11-15-11---------15------------------------------18------------|
|-12--12---------------15-----------------------------------------------|
|-----------------------------------------------------------------------|
|-----------------------------------------------------------------------|
|-----------------------------------------------------------------------|

3:DEVIL AND THE DARK OCEAN:

INTRO (RIFF 1)
                                              |1st,3rd    | 2nd,4th    |
e:--------------------------------------------|-----------|------------|
B:--------------------------------------------|-----------|------------|
G:--------------------------------------------|-7-7--6-6--|-7-7-10-10--|
D:----2-----------0---------------------------|-7-7--6-6--|-7-7-10-10--|
A:------2-3---0-2---3--0-2-------3p0-2p0------|-5-5--4-4--|-5-5--8--8--|
E:-(0)---------------------0-2-0---------3-2--|-----------|------------|
                           . . .
BRIDGE (0:21)

e:----------------|
B:----------------|
G:--2-2-------2-2-|
D:--2-2-------2-2-|
A:--0-0-------0-0-|
E:----------------|

VERSE (0:28)

e:----------------------------------|
B:----------------------------------|
G:--------7-7-6-6-------------------|
D:-3-3----7-7-6-6----3-3----5-5-5-5-|
A:-3-3----5-5-4-4----3-3----5-5-5-5-|
E:-1-1---------------1-1----3-3-3-3-|

CHORUS (0:38)
                                     |1st       |2nd
e:-----------------------------------|----------|---------|
B:-----------------------------------|----------|---------|
G:-----------------------------------|-7-7-6-6--|---------|
D:------------10-10-9----------------|-7-7-6-6--|-5-5-5-5-|
A:-7-7-8-7--7---------8*--7-7-8-7----|-5-5-4-4--|-5-5-5-5-|
E:-----------------------------------|----------|-3-3-3-3-|
     .      .               .



RIFF 1
                                              |1st,3rd    | 2nd,4th    |
e:--------------------------------------------|-----------|------------|
B:--------------------------------------------|-----------|------------|
G:--------------------------------------------|-7-7--6-6--|-7-7-10-10--|
D:----2-----------0---------------------------|-7-7--6-6--|-7-7-10-10--|
A:------2-3---0-2---3--0-2-------3p0-2p0------|-5-5--4-4--|-5-5--8--8--|
E:-(0)---------------------0-2-0---------3-2--|-----------|------------|
                           . . .

VERSE

e:----------------------------------|
B:----------------------------------|
G:--------7-7-6-6-------------------|
D:-3-3----7-7-6-6----3-3----5-5-5-5-|
A:-3-3----5-5-4-4----3-3----5-5-5-5-|
E:-1-1---------------1-1----3-3-3-3-|

CHORUS
                                     |1st       |2nd      |
e:-----------------------------------|----------|---------|
B:-----------------------------------|----------|---------|
G:-----------------------------------|-7-7-6-6--|---------|
D:------------10-10-9----------------|-7-7-6-6--|-5-5-5-5-|
A:-7-7-8-7--7---------8*--7-7-8-7----|-5-5-4-4--|-5-5-5-5-|
E:-----------------------------------|----------|-3-3-3-3-|
     .      .               .


Keyboard part (1:32) (No guitar)

e:---------------------------------------------|
B:---------------------------------------------|
G:---------------------------------------------|
D:-2-2-----2-2-----10-10----10-10------5-5-5-5-|
A:-2-2-----2-2-----10-10----10-10------5-5-5-5-|
E:-0-0-----0-0------8--8-----8--8------3-3-3-3-|

(2:04) FILL 1

e:-------------------------|
B:-------------------------|
G:-------------------------|
D:-2--------7-9-10--10---9-| x2
A:-2--------7-9-10--10---9-|
E:-0--------5-7--8---8---7-|

(2:25) BRIDGE 2

e:----------------------------------------|--------------------------------|
B:----------------------------------------|--------------------------------|
G:----------------------------------------|*------------------------------*|
D:-2-2-2-2-2--2-2-2-2-2--2-2-2--2-2-2-2-2-|*--5--5-5-5--5-5-5--5-5-5--5-5-*|
A:-2-2-2-2-2--2-2-2-2-2--2-2-2--2-2-2-2-2-|---5--5-5-5--5-5-5--5-5-5--5-5--|
E:-0-0-0-0-0--0-0-0-0-0--0-0-0--0-0-0-0-0-|---3--3-3-3--3-3-3--3-3-3--3-3--|
   . . . . .  . . . . .  . . .  . . . . .     .  . . .  . . .  . . .  . .

(2:36) FILL 2

e:-------------------------|
B:-------------------------|
G:-------------------------|
D:-2--------7-9-10--10---9-| x2
A:-2--------7-9-10--10---9-|
E:-0--------5-7--8---8---7-|


(2:46) VERSE 2

e:--------------|
B:--------------|
G:--------------|
D:-2------10--9-| x2
A:-2------10--9-|
E:-0-------8--7-|

(3:00) RIFF 2
                                        |1st,3rd|2nd,4th|
e:--------------------------------------|-------|-------|
B:--------------------------------------|-------|-------|
G:--------------------------------------|-------|-------|
D:-------------4---6---7---6---4--------|---2---|--10---| x4
A:-4---6---7-----------------------7----|---2---|--10---|
E:--444-444-444-444-444-444-444-444-444-|---0---|---8---|

VERSE 2

e:--------------|
B:--------------|
G:--------------|
D:-2------10--9-| x2
A:-2------10--9-|
E:-0-------8--7-|

RIFF 2
                                        |1st,3rd|2nd,4th|
e:--------------------------------------|-------|-------|
B:--------------------------------------|-------|-------|
G:--------------------------------------|-------|-------|
D:-------------4---6---7---6---4--------|---2---|--10---| x4
A:-4---6---7-----------------------7----|---2---|--10---|
E:--444-444-444-444-444-444-444-444-444-|---0---|---8---|

KEYBOARD PART

e:----------------------------------|
B:----------------------------------|
G:----------------------------------|
D:-2-2-----2-2-----10-10----10-10---|
A:-2-2-----2-2-----10-10----10-10---|
E:-0-0-----0-0------8--8-----8--8---|


(3:52) VERSE 3

e:|---------------------------|---------------------------|
B:|---------------------------|---------------------------|
G:|*-------------------------*|---------------------------|
D:|*-5---2-4-5-7----9--------*|-5---2-4-5-7----9---10-----|
A:|--5---2-4-5-7----9---------|-5---2-4-5-7----9---10-----|
E:|--3---0-2-3-5----7---------|-3---0-2-3-5----7----8-----|

e:|---------------------------------|
B:|---------------------------------|
G:|---------------------------------|
D:|--10---2-4-5-7----9--------/10-7-|
A:|--10---2-4-5-7----9--------------|
E:|---8---0-2-3-5----7--------------|

4:SACRAENT OF WILDERNESS:

Standard tuning (EADGBE)


Riff A1:                                         dive w/bar

|---------------------------------------------------|
|---------------------------------------------------|
|--------------7-----------------2-4----------------|
|-4-4-4-4-4----7----4-4-4-4-4----2-4--4-4-4-4-4-----|
|-4-4-4-4-4----5----4-4-4-4-4----0-2--4-4-4-4-4-----|
|-2-2-2-2-2---------2-2-2-2-2---------2-2-2-2-2--0--|


Riff A2:

|-----------------------------------------------------|
|-----------------------------------------------------|
|-----------------------7-------------------------2-4-|
|-4--------------4------7--2--------------4-------2-4-|
|-4--------------4------5--2--------------4-------0-2-|
|-2-2-2-22-2-2-2-2-2-2-----4-2-2-22-2-2-2-2-2-2-2-----|


|-----------------------------------------------------|
|-----------------------------------------------------|
|-----------------------7-----------------------------|
|-4--------------4------7--4--------------4-----------|
|-4--------------4------5--4--------------4-----xx-xx-|
|-2-2-2-22-2-2-2-2-2-2-----2-2-2-22-2-2-2-2-2-2-xx-xx-|

Riff B1:

2x:
                             2x:
|-4-2-2-2-5-2-2-2-7-2-2-2-5-2-2-2-|-7-5-5-5-8-5-5-5-10-5-5-5-8-5-5-5-|
|---------------------------------|----------------------------------|
|---------------------------------|----------------------------------|
|---------------------------------|----------------------------------|
|---------------------------------|----------------------------------|
|---------------------------------|----------------------------------|


|-9-7-7-7-10-7-7-7-12-7-7-7-10-7-7-7-|
|------------------------------------|
|------------------------------------|
|------------------------------------|
|------------------------------------|
|------------------------------------|


|-9-10-9-7--------------------------------------------|
|----------10-9-7-6-7-6-------------------------------|
|-----------------------7-6-4-------------------------|
|-----------------------------7-6-4-3-4-3-------------|
|-----------------------------------------5-4-2-------|
|-----------------------------------------------5-4-2-|


Riff B2:

|--------------------------------------------------------------|
|--------------------------------------------------------------|
|--------------------------------------------------------------|
|-4---------------4-----------------4-----------------------2--|
|-4---------------4-----------------------4-----------------2--|
|-2-2-2-22-2-2-22-2-2-2-22-2-2-22-2---2-2---2-2-2-2-2-2-2-2-0--|


Riff C 2x:

|-----------------------------------------------------------|
|-----------------------------------------------------------|
|------------------------------6-7---------------7----------|
|-4---------------4------------6-7---------------7----------|
|-4---------------4------------4-5-5-5-55-5-5-55-5-5-5-5-5--|
|-2-2-2-22-2-2-22-2-2-2-22-2-2------------------------------|


|-----------------------------------------------------------|
|-----------------------------------------------------------|
|-6-4---------------4---------------------------------------|
|-6-4---------------4---------------4------------2----------|
|-4-2-2-2-22-2-2-22-2-2-2-22-2-2-22-4------------2----------|
|-----------------------------------2------------0----------|


Riff B1

Riff C 2x

Chorus:

|---------------------------------------------------------------------------|
|---------------------------------------------------------------------------|
|------------------------------7--------------------------------------------|
|-4----------------------------7--------------------------------------------|
|-4------------------2-4---2-4-5-5-5-5-5...--5h7-7-7-7-7-7--5h7-7-7-7-7-7-7-|
|-2-2-2-2-2...-2-4-5-----5--------------------------------------------------|

|----------------------------------------------------------------------------|
|----------------------------------------------------------------------------|
|------------------------------7---------------------------------------------|
|-4----------------------------7---------------------------------------------|
|-4------------------2-4---2-4-5-5-5-5-5...--7-5-4---4-----------------------|
|-2-2-2-2-2...-2-4-5-----5-------------------------7---7-5-4-5-4-2-0-5-4-2-0-|


|---------------------------------------------------------------------------|
|---------------------------------------------------------------------------|
|------------------------------7--------------------------------------------|
|-4----------------------------7------------------(5)~~---------------------|
|-4------------------2-4---2-4-5-5-5-5-5...--5h7----------------------------|
|-2-2-2-2-2...-2-4-5-----5--------------------------------------------------|


|---------------------------------------------------------------------------|
|---------------------------------------------------------------------------|
|------------------------------7--------------------------------------------|
|-4----------------------------7--------------------------------------------|
|-4------------------2-4---2-4-5-5-5-5-5...--7-5-4---4----------------------|
|-2-2-2-2-2...-2-4-5-----5-------------------------7---7-5-4-5-4-2-0-5-4-2-0|


Riff D:

|-----------------------------------------------------|
|-----------------------------------------------------|
|-----------------------7-------------------------2-4-|
|-4--------------4------7--4--------------4-------2-4-|
|-4--------------4------5--4--------------4-------0-2-|
|-2-2-2-22-2-2-2-2-2-2-----2-2-2-22-2-2-2-2-2-2-2-----|


|---------------------------------------------------------|
|---------------------------------------------------------|
|-----------------------7-------------------------2-2-4---|
|-4--------------4------7--2--------------4-----4-2-2-4-2-|
|-4--------------4------5--2--------------4-----4-0-0-2-2-|
|-2-2-2-22-2-2-2-2-2-2-----4-2-2-22-2-2-2-2-2-2-2-------0-|


it ends with this:

|-9-10-9-7--------------------------------------------|
|----------10-9-7-6-7-6-------------------------------|
|-----------------------7-6-4-------------------------|
|-----------------------------7-6-4-3-4-3-------------|
|-----------------------------------------5-4-2-------|
|-----------------------------------------------5-4-2-|


Riff E 2x:        (* there is some harmonic here)

|-----------------------------|
|-----------------------------|
|-----------------------------|
|-7---------6-7-----7--9-7-11-|
|-9-9-9-9-9-7-9-9-9-9-11-9-12-|
|---------------------------*-|


|---------------------------------------|
|---------------------------------------|
|-------------------------------9-11-14-|
|-7---------6-7---------9-11-12---------|
|-9-9-9-9-9-7-9-9-11-12-----------------|
|---------------------------------------|


Riff F1 2x:

|------------------------------|
|------------------------------|
|------2----7---------2----4---|
|-4----2----7----4----2----4---|
|-4----0----5----4----0----2---|
|-2--------------2-------------|


Riff F2:

|-------------------------|
|-------------------------|
|-------------------------|
|----------------2--2--2--|
|-4-4-4---4-4-4--0--0--0--|
|-2-2-2---2-2-2-----------|


Then comes the keyboard solo
during that guitar plays Riff E 2 times.

Play only the first two patterns of the chorus
and then:

|---------------|
|---------------|
|-2---------7---|
|-2----3----7---|
|-0----3----5---|
|------1--------|


then the end is just some fast lick from the Riff B scale.


h - hammer on
p - pull off
b - bend string up
r - release bend
/ - slide up
\ - slide down
~ - vibrato
t - right hand tap
x - play 'note' with heavy damping
(5)- harmonics


5:PASSION AND THE OPERA:

Intro:  all notes in brackets palm muted

e|-----------|-----------|
B|-----------|-----------|
G|-----------|--2-4------|
D|-44--44--44|--2-4------|
A|-44--44--44|--0-2------|
E|-22--22--22|-----------|

Intro Part 2: all in brackets are palm muted

e|-------------|---|--------|---------|
B|-------------|---|--------|---------|
G|-------------|-2-|--------|-2-4-----|
D]-444444444444|-2-|44444444|-2-4-----|
A|-444444444444|-0-|44444444|-0-2-----|
E|-222222222222|---|22222222|---------|

Verse/Chorus: All Palm Muted

e|-------------------------------------------------------------------|
B|-------------------------------------------------------------------|
G|-------------------------------22-2-2-22-2222----------------------|
D|-44-4-4-44-4444-44-4-4-44-4444-22-2-2-22-2222-66-6-6-66-6666-------|
A|-44-4-4-44-4444-44-4-4-44-4444-00-0-0-00-0000-66-6-6-66-6666-------|
E|-22-2-2-22-2222-22-2-2-22-2222----------------44-4-4-44-4444-------|

Solo:

e|-----------------------------------------------------7-9~--7--------------|
B|---------------------------------------------7~~~--9---------9-7~-5~-7~~--|
G|-/6~--6-------------------77-/-9~--77-/-4~-6------------------------------|
D|---------9-7-6-7~---------------------------------------------------------|
A|-------------------66-7~--------------------------------------------------|
E|--------------------------------------------------------------------------|

Break: all in brackets are palm muted

e|------------|---|--------|-----------|
B|------------|---|--------|-----------|
G|------------|-2-|--------|--2-4------|
D|-44-44-44-44|-2-|44-44-44|--2-4------|
A|-44-44-44-44|-0-|44-44-44|--0-2------|
E|-22-22-22-22|---|22-22-22|-----------|

Break 2: all in brackets are palm muted

e|------------|---|------------|---|------------|----|---------|
B|------------|---|------------|---|------------|----|---------|
G|------------|-4-|------------|---|------------|-4--|---------|
D|666666666666|-4-|666666666666|-2-|666666666666|-4--|66666666-|
A|666666666666|-2-|666666666666|-2-|666666666666|-2--|66666666-|
E|444444444444|---|444444444444|-0-|444444444444|----|44444444-|

|--------------|
|--------------|
|-4------------|
|-4--2---------|
|-2--2---------|
|----0---------|

Ending Part 1: all palm muted

e|-----------------|----|-------------------------------|
B|-----------------|----|-------------------------------|
G|-----------------|----|-22-2-2-22-2222-22-2-2-22-2222-|
D|-22-2-2-22-2222--|----|-22-2-2-22-2222-22-2-2-22-2222-|
A|-22-2-2-22-2222--|-X4-|-00-0-0-00-0000-00-0-0-00-0000-|
E|-00-0-0-00-0000--|----|-------------------------------|

-------------------------------------|
-------------------------------------|
-------------------------------------|
22-2-2-22-2222-22-2-2-22-2222--------|
22-2-2-22-2222-22-2-2-22-2222--------|
00-0-0-00-0000-00-0-0-00-0000--------|

Ending Part 2: all notes in brackets palm muted

e|-|--|---|----|-|--|---|----|-|--|---|----|-----------|
B|-|--|---|----|-|--|---|----|-|--|---|----|-----------|
G|-|--|---|----|-|22|-2-|----|-|--|---|----|-22--------|
D|-|22|-2-|----|-|22|-2-|----|-|22|-2-|----|-22-22-4---|
A|-|22|-2-|-X8-|-|00|-0-|-X7-|-|00|-0-|-X7-|-00-22-4---|
E|-|00|-0-|----|-|--|---|----|-|00|-0-|----|----00-2---|

Ending Part 3: all palm muted

e|----------------------------------------------------------------|
B|----------------------------------------------------------------|
G|----------------------------------------------------------------|
D|-22-2-2-22-2222-22-2-2-22-2222-22-2-2-22-2222-22-2-2-22-2222----|
A|-22-2-2-22-2222-22-2-2-22-2222-22-2-2-22-2222-22-2-2-22-2222----|
E|-00-0-0-00-0000-00-0-0-00-0000-00-0-0-00-0000-00-0-0-00-0000----|

Ending Part 4: all palm muted

e|----------------|------|-------------------------------|
B|----------------|------|-------------------------------|
G|----------------|------|-------------------------------|
D|-22-2-2-22-2222-|------|-66-6-6-66-6666-66-6-6-66-6666-|
A|-22-2-2-22-2222-|-X4---|-66-6-6-66-6666-66-6-6-66-6666-|
E|-00-0-0-00-0000-|------|-44-4-4-44-4444-44-4-4-44-4444-|

-----------------------------------|
-----------------------------------|
22-2-2-22-2222-22-2-2-22-2222------|
22-2-2-22-2222-22-2-2-22-2222------|
00-0-0-00-0000-00-0-0-00-0000------|
-----------------------------------|

Song Structure:
Whacky guitar bit first I couldn't figure out
Intro
Intro part 2 x 4
Verse/chorus x 4
Solo
Verse/chorus x 4
Solo
Break x 2
Break part 2 x 2
(operatic singing comes in)
Ending Part 1
Ending Part 2
Ending Part 3
Ending Part 4 till end


SWANHEART:

Normal tuning: EADGBE

At 2:43

e:----------------------------------------------------|
B:----------------------------------------------------|
G:-----------------7---4--------------7----4---4------|
D:-2---2-5----7----7---4---2---2-5----7----4---4------|
A:-2---2-5----7----5---2---2---2-5----5----2---2------|
E:-0---0-3----5------------0---0-3--------------------|


Solo:

e:-------------------------------------------------------|
B:-/14~--------------------------------------------------|
G:------16--14~----14/16-14~---14h16--13~--14-13---------|
D:------------------------------------------------16-14~-|
A:-------------------------------------------------------|
E:-------------------------------------------------------|

e:----------------------------------|
B:----------------------------------|
G:-------13-14-14/16~--14~--13------|
D:-14-16------------------------16~-|
A:----------------------------------|
E:----------------------------------|

e:----------------------------------------------------|
B:-/14~-----------------------------------------------|
G:------16--14~----14/16-14~---16--13~--14-13---------|
D:---------------------------------------------16-14~-|
A:----------------------------------------------------|
E:----------------------------------------------------|


e:------------------------------------|
B:------------------------------------|
G:-------13-14-14/16~--14~--13-14/16~-|
D:-14-16------------------------------|
A:------------------------------------|
E:------------------------------------|


e:-------------------------------------------------------------------|
B:--------------------------------/9---------------------------------|
G:-8h9-9--8h9-9/11~--9p8-9p8----------11--9-8-9~--8h9p8--------------|
D:---------------------------11~------------------------9~-----------|
A:-----------------------------------------------------------12--11~-|
E:-------------------------------------------------------------------|


e:-------------------------------------------------------------|
B:-/9----------------------------------------------------------|
G:----11~---9~--8h9p8------------------------------------------|
D:--------------------9~---9/11~--9----------------------------|
A:----------------------------------12-11~----12~-11h12p11-----|
E:---------------------------------------------------------12~-|

e:-----------------------------|
B:-----------------------------|
G:-----------------------------|
D:--------------------11~--13~-|
A:--------11-12--14~-----------|
E:--12-14----------------------|

e:----------------------------------------------11-12~-12-11------------|
B:-------------------------11-12-11----11-12-14---------------12----14~-|
G:-------------------11-13----------13---------------------------13-----|
D:----------11-13-14----------------------------------------------------|
A:-14-13-14-------------------------------------------------------------|
E:----------------------------------------------------------------------|

MOONDANCE:

main:

E----------------------------------------------------------------|
B----------------------------------------------------------------|
G------------------3-------------3-------------------------------|
D-5------5-----5-6---6-5-6--5-6----6-5h6p5h6-5----3--------------|
A---333----33---------------------------------3-5---5-1-3--------|
E----------------------------------------------------------------|


THE RIDDLER

Intro:

e:-------------------------------------------------------------|
B:-------------------------------------------------------------|
G:----------7-----5-----------------------7-----5--------5--4--|
D:-7----2---7--5--5----5---3--2--7----2---7--5--5----5---3--2--|
A:-7----2---5--5--3----5---3--2--7----2---5--5--3----5---------|
E:-5----0------3-------3---1--0--5----0------3-------3---------|

e:--------------------------------------------------------------------------|
B:--------------------------------------------------------------------------|
G:--------------------------------------------------------------------------|
D:-----------------------------------5-----5---5-----5-----5---5---7----7---|
A:-0-0-8\-5-57--77-7-7-7---7--3-3-3-3-3-3-3-3-3-3-3-3-3-3-3-3--5-5-5-5-5-5-5|
E:---------3-3---5--5--5-5-5-5-5-5-5-5-5-5-5-5------------------------------|

e:-------------------------------------------------|
B:-------------------------------------------------|
G:-------------------------------------------------|
D:-------------------------------------------------|
A:-----3-3-----5-5------7-----7---7-----7---7---7--|
E:-1-1-1-1-3-3-3-3--5-5-5-5-5-5-5-5-5-5-5-5-5-5-5--|

e:--------------------------------------------------------------------------|
B:5--5/8-8--8-10-8-5\3-3-/10--10-8-6-5-3-5-/8--8-h10-10-8-7--10-12-12-12p10-|
G:------------------------------------------2--2-4-5-------7-------------12-|
D:--------------------------------------------------------------------------|
A:--------------------------------------------------------------------------|
E:--------------------------------------------------------------------------|

                  br

e:-----------------~-----------------|
B:----------------A.H--12-12-10-A.H--|
G:--------------7--9-------------9---|
D:-----77-99-10----------------------|
A:-12\-------------------------------|
E:-----------------------------------|


e:--------------------------------------------------------|
B:--------------------------------------------------------|
G:-5---------7---------5----7-----------------------------|
D:-5----5----7----7----5----7----3---5--------------------|
A:-3----5----5----7----3----5----3---5--2-2-2-2-2-2-2-2-2-|
E:------3---------5--------------1---3--0-0-0-0-0-0-0-0-0-|


Chorus:

e:--------------------------------------------------------------------------|
B:--------------------------------------------------------------------------|
G:--------------------------------------------------------------------------|
D:-----7-------3-------2----5---2---------------------------------------5-5-|
A:-----7---3---2----5---2---7--7---7--7---7-7-5-5--3-----3---3--3---3-3-3-3-|
E:-12\-5----3--1----3--0----3---0---5-5-5-5-5-5-5-5-5-5-5-5-5-5-3-3-1-1-1-1-|

-----------------|
-----------------|
-----------------|
-----------------|
-----------------|
1-1-1-1-1-1-1-1--|

e:----------------------------------------|
B:----------------------------------------|
G:---------------------------------5------|
D:-----7-----7---7-----7---7-7-7---5--5---|
A:-5-5-5-5-5-5-5-5-5-5-5-5-5-5-5-0-3--5---|
E:------------------------------------3---|

Intro thing again

e:-------------------------------|
B:-------------------------------|
G:----------7-----5--------------|
D:-7----2---7--5--5----5---3--2--|
A:-7----2---5--5--3----5---3--2--|
E:-5----0------3-------3---1--0--|

Bridge:

e:--------------------------------------------------------------------------|
B:--------------------------------------------------------------------------|
G:--------------------------------------------------------------------------|
D:-----------5-----5---5-----5-----5---5------7-------7---------------------|
A:-0-0-8\-5-5-7-7-7-7--7-7-7--3-3-3-3-3-3-3-3-3-3-3-3-3-3-3-3-5-5-5-5-5-5-5-|
E:---------3-3---5--5--5-5-5-5-5-5-5-5-5-5-5-5------------------------------|

e:-------------------------------------------------|
B:-------------------------------------------------|
G:-------------------------------------------------|
D:-------------------------------------------------|
A:-----3-3-----5-5------7-----7---7-----7---7---7--|
E:-1-1-1-1-3-3-3-3--5-5-5-5-5-5-5-5-5-5-5-5-5-5-5--|


e:--------------------------------------------------------------------------|
B:5--5/8-8--8-10-8--5\3-3--/10--10-8-6-5-3-5-/8-8-h10-10-8-7-10-12-12-12p10-|
G:------------------------------------------2--2-4-5---------------7-----12-|
D:--------------------------------------------------------------------------|
A:--------------------------------------------------------------------------|
E:--------------------------------------------------------------------------|

e:-----------------~-----------------|
B:----------------A.H--12-12-10-A.H--|
G:--------------7--9-------------9---|
D:-----77-99-10----------------------|
A:-12\-------------------------------|
E:-----------------------------------|



guitar2

e:--------------------------------------------------------|
B:--------------------------------------------------------|
G:-5---------7---------5----7-----------------------------|
D:-5----5----7----7----5----7----3---5--------------------|
A:-3----5----5----7----3----5----3---5--2-2-2-2-2-2-2-2-2-|
E:------3---------5--------------1---3--0-0-0-0-0-0-0-0-0-|

Chorus:

e:--------------------------------------------------------------------------|
B:--------------------------------------------------------------------------|
G:--------------------------------------------------------------------------|
D:-----7-------3-------2----5---2---------------------------------------5-5-|
A:-----7----3----2----5---2----7---7---7-7---7-7-5-5--3--3---3--3---3-3-3-3-|
E:-12\-5----3--1----3--0----3---0---5-5-5-5-5-5-5-5-5-5-5-5-5-5-3-3-1-1-1-1-|

-----------------|
-----------------|
-----------------|
-----------------|
-----------------|
1-1-1-1-1-1-1-1--|

e:----------------------------------------|
B:----------------------------------------|
G:---------------------------------5------|
D:-----7-----7---7-----7---7-7-7---5--5---|
A:-5-5-5-5-5-5-5-5-5-5-5-5-5-5-5-0-3--5---|
E:------------------------------------3---|

Intro thing again

e:------------------------------------|
B:------------------------------------|
G:----------7-----5-------------------|
D:-7----2---7--5--5----5---3--2---2---|
A:-7----2---5--5--3----5---3--2---0---|
E:-5----0------3-------3---1--0-------|


e:-8-/7-3--8-8--10--8-7-5--8-10-12-10-8-13-12-10--13--13-15--13-15-17-13/20-|
B:---------------13-15-17-13-15-17--------15-17----------17------17-15-13---|
G:--------------------------------------------------------------------------|
D:--------------------------------------------------------------------------|
A:--------------------------------------------------------------------------|
E:--------------------------------------------------------------------------|

guitar2

e:------------------5-7-8-7-5-10-8-7--------10-------10-12---10-12-13-10-15-|
B:-10-/8-5--8--10--8-7-\3---10-12-13-10-12--13--12--13---13-------13-12-10--|
G:--------------------------------------------------------------------------|
D:--------------------------------------------------------------------------|
A:--------------------------------------------------------------------------|
E:--------------------------------------------------------------------------|

e:--------------------------------------|
B:--------------------------------------|
G:-in the end---------------------------|
D:----------------------------------2---|
A:----------------------------------2---|
E:--------------12\-0-0-0-0-0-0-0-0-0---|

e:---------------------------------------------------------------------------|
B:---------------------------------------------------------------------------|
G:---------------------------------------------------------------------------|
D:--7-------3-------2----5---2-------------------------------------------5-5-|
A:--7---3---2---5---2---7--7---7--7---7-7-5-5----3-----3---3-----3---3-3-3-3-|
E:--5----3--1----3--0----3---0---5-5-5-5-5-5-5-5-5-5-5-5-5-5-3-3-1-1-1-1-1-1-|

-----------------|
-----------------|
-----------------|
-----------------|
-----------------|
1-1-1-1-1-1-1-1--|

e:----------------------------------------|
B:----------------------------------------|
G:---------------------------------5------|
D:-----7-----7---7-----7-----7---7-5--5---|
A:-5-5-5-5-5-5-5-5-5-5-5-5-5-5-5-5-3--5---|
E:------------------------------------3---|

e:---------------------------------------------------------------------------|
B:---------------------------------------------------------------------------|
G:---------------------------------------------------------------------------|
D:--7-------3-------2----5---2-------------------------------------------5-5-|
A:--7---3--2----5---2---7-----7---7-----7---7-7-5-5--3--3-3------3---3-3-3-3-|
E:--5----3--1----3--0----3---0---5-5-5-5-5-5-5-5-5-5-5-5-5-5-3-3-1-1-1-1-1-1-|

-----------------|
-----------------|
-----------------|
-----------------|
-----------------|
1-1-1-1-1-1-1-1--|


e:--------------------------------------------|
B:--------------------------------------------|
G:---------------------------------5----------|
D:-----7-----7---7-----7-----7---7-5--5---7---|
A:-5-5-5-5-5-5-5-5-5-5-5-5-5-5-5-5-3--5---7---|
E:------------------------------------3---5---|


Intro:

e:-------------------------------------------------------------|
B:-------------------------------------------------------------|
G:----------7-----5-----------------------7-----5--------5--4--|
D:-7----2---7--5--5----5---3--2--7----2---7--5--5----5---3--2--|
A:-7----2---5--5--3----5---3--2--7----2---5--5--3----5---------|
E:-5----0------3-------3---1--0--5----0------3-------3---------|

e:--------------------------------------------------------------------------|
B:--------------------------------------------------------------------------|
G:--------------------------------------------------------------------------|
D:-----------------------------------5-----5---5-----5-----5---5---7----7---|
A:-0-0-8\-5-57--77-7-7-7---7--3-3-3-3-3-3-3-3-3-3-3-3-3-3-3-3--5-5-5-5-5-5-5|
E:---------3-3---5--5--5-5-5-5-5-5-5-5-5-5-5-5------------------------------|

e:-------------------------------------------------|
B:-------------------------------------------------|
G:-------------------------------------------------|
D:-------------------------------------------------|
A:-----3-3-----5-5------7-----7---7-----7---7---7--|
E:-1-1-1-1-3-3-3-3--5-5-5-5-5-5-5-5-5-5-5-5-5-5-5--|

e:--------------------------------------------------------------------------|
B:5--5/8-8--8-10-8-5\3-3-/10--10-8-6-5-3-5-/8--8-h10-10-8-7--10-12-12-12p10-|
G:------------------------------------------2--2-4-5-------7-------------12-|
D:--------------------------------------------------------------------------|
A:--------------------------------------------------------------------------|
E:--------------------------------------------------------------------------|

                  br

e:-----------------~-----------------|
B:----------------A.H--12-12-10-A.H--|
G:--------------7--9-------------9---|
D:-----77-99-10----------------------|
A:-12\-------------------------------|
E:-----------------------------------|

e:--------------------------------------------------------|
B:--------------------------------------------------------|
G:-5---------7---------5----7-----------------------------|
D:-5----5----7----7----5----7----3---5--------------------|
A:-3----5----5----7----3----5----3---5--2-2-2-2-2-2-2-2-2-|
E:------3---------5--------------1---3--0-0-0-0-0-0-0-0-0-|

Chorus:

e:---------------------------------------------------------------------------|
B:---------------------------------------------------------------------------|
G:---------------------------------------------------------------------------|
D:-----7-------3------2----5---2---------------------------------------5-5---|
A:-----7---3---2---5---2---7--7---7--7---7-7-5-5--3-----3---3--3---3-3-3-3---|
E:-12\-5----3--1---3--0----3---0---5-5-5-5-5-5-5-5-5-5-5-5-5-5-3-3-1-1-1-1-1-|

-------------------|
-------------------|
-------------------|
-------------------|
-------------------|
1-1-1-1-1-1-1-1-1--|

e:----------------------------------------|
B:----------------------------------------|
G:---------------------------------5------|
D:-----7-----7---7-----7---7-7-7---5--5---|
A:-5-5-5-5-5-5-5-5-5-5-5-5-5-5-5-0-3--5---|
E:------------------------------------3---|

Intro thing again

e:-------------------------------|
B:-------------------------------|
G:----------7-----5--------------|
D:-7----2---7--5--5----5---3--2--|
A:-7----2---5--5--3----5---3--2--|
E:-5----0------3-------3---1--0--|

Bridge:

e:--------------------------------------------------------------------------|
B:--------------------------------------------------------------------------|
G:--------------------------------------------------------------------------|
D:-----------5-----5---5-----5-----5---5------7-------7---------------------|
A:-0-0-8\-5-5-7-7-7-7--7-7-7--3-3-3-3-3-3-3-3-3-3-3-3-3-3-3-3-5-5-5-5-5-5-5-|
E:---------3-3---5--5--5-5-5-5-5-5-5-5-5-5-5-5------------------------------|

e:-------------------------------------------------|
B:-------------------------------------------------|
G:-------------------------------------------------|
D:-------------------------------------------------|
A:-----3-3-----5-5------7-----7---7-----7---7---7--|
E:-1-1-1-1-3-3-3-3--5-5-5-5-5-5-5-5-5-5-5-5-5-5-5--|


e:--------------------------------------------------------------------------|
B:5--5/8-8--8-10-8--5\3-3--/10--10-8-6-5-3-5-/8-8-h10-10-8-7-10-12-12-12p10-|
G:------------------------------------------2--2-4-5---------------7-----12-|
D:--------------------------------------------------------------------------|
A:--------------------------------------------------------------------------|
E:--------------------------------------------------------------------------|

e:-----------------~-----------------|
B:----------------A.H--12-12-10-A.H--|
G:--------------7--9-------------9---|
D:-----77-99-10----------------------|
A:-12\-------------------------------|
E:-----------------------------------|

guitar2

e:--------------------------------------------------------|
B:--------------------------------------------------------|
G:-5---------7---------5----7-----------------------------|
D:-5----5----7----7----5----7----3---5--------------------|
A:-3----5----5----7----3----5----3---5--2-2-2-2-2-2-2-2-2-|
E:------3---------5--------------1---3--0-0-0-0-0-0-0-0-0-|

Chorus:

e:---------------------------------------------------------------------------|
B:---------------------------------------------------------------------------|
G:---------------------------------------------------------------------------|
D:----7-------3-------2----5---2---------------------------------------5-5---|
A:----7----3----2----5---2----7---7---7-7---7-7-5-5--3--3---3--3---3-3-3-3---|
E:12\-5----3--1----3--0----3---0---5-5-5-5-5-5-5-5-5-5-5-5-5-5-3-3-1-1-1-1-1-|

-------------------|
-------------------|
-------------------|
-------------------|
-------------------|
1-1-1-1-1-1-1-1-1--|

e:----------------------------------------|
B:----------------------------------------|
G:---------------------------------5------|
D:-----7-----7---7-----7---7-7-7---5--5---|
A:-5-5-5-5-5-5-5-5-5-5-5-5-5-5-5-0-3--5---|
E:------------------------------------3---|

Intro thing again

e:------------------------------------|
B:------------------------------------|
G:----------7-----5-------------------|
D:-7----2---7--5--5----5---3--2---2---|
A:-7----2---5--5--3----5---3--2---0---|
E:-5----0------3-------3---1--0-------|

e:-8-/7-3--8-8-10-8-7-5--8-10-12-10-8-13-12-10--13--13-15---13-15-17-13-/20-|
B:---------------13-15-17-13-15-17------15-17----------17--------17-15-13---|
G:--------------------------------------------------------------------------|
D:--------------------------
Добавлено: 11.03.2012
Другие материалы по этой песне:
  • Аккорды и текст

Страница создана 11.03.2012
http://primanota.ru/nightwish/oceanborn-album-chords.htm
Привет, Гость.
Предлагаем пройти революционный курс по гитаре.
Подарок от PrimaNota.Ru, забирай!