PrimaNota.ru - самый крупный в мире бесплатный архив песенных текстов, аккордов, табулатур и нот


Nightwish - Nymphomaniac Fantasia - аккорды и текст, таба, видео

Регистрация Запомнить меня
Войти через:  Facebook Google Twitter Vk Yandex Mail.ru

Nightwish - Nymphomaniac Fantasia - аккорды и текст, таба, видео

Печатать
Просмотров: 444
Авторы музыки: Nightwish
Авторы текста: Tuomas Holopainen
Nymphomaniac Fantasia
Nightwish
Clean sound, sounds better with an acoustic guitar
 
[e:-0-----0-----0-----0-----0-----0-----0---------------------------------------
B:-0-----1-----0-----1-----1-----1-----0---------------------------------------
G:-0-----2-----0-----2-----0-----2-----0---------------------------------------
D:-2-----2-----2-----2-----2-----2-----2---------------------------------------
A:-2-----0-----2-----0-----3-----0-----2---------------------------------------
E:-0-----------0-----------------------0---------------------------------------

e:-0-----0-----0-----0-----0-----0-----0-----2---------------------------------
B:-0-----1-----0-----1-----1-----1-----0-----3---------------------------------
G:-0-----2-----0-----2-----0-----2-----0-----2---------------------------------
D:-2-----2-----2-----2-----2-----2-----2-----0---------------------------------
A:-2-----0-----2-----0-----3-----0-----2---------------------------------------
E:-0-----------0-----------------------0---------------------------------------

e:-0-----0-----0-----0-----0-----0-----2---------------------------------------
B:-0-----1-----0-----1-----1-----1-----0---------------------------------------
G:-0-----2-----0-----2-----0-----2-----2---------------------------------------
D:-2-----2-----2-----2-----2-----2-----0---------------------------------------
A:-2-----0-----2-----0-----3-----0---------------------------------------------
E:-0-----------0---------------------------------------------------------------]

1:22 Electric guitar with distortion

[e:-----------------------------------------------------------------------------
B:-----------------------------------------------------------------------------
G:------------5----------7------------------------------7----------------------
D:-2----------5----------7--------------3 TIMES THEN ---7---2------------------
A:-2----------3-3-3...---5-5-5...-----------------------5---2------------------
E:-0-0-0...-------------------------------------------------0------------------]
   p.m. . . . . . . . . . . . . .

A second guitar play the chords
No guitar during the verses

2:24

[e:-----------------------------------------------------------------------------
B:-----------------------------------------------------------------------------
G:-------------5----------7------------------------------7---2-----------------
D:--2----------5----------7--------------2 TIMES THEN ---7---2-----------------
A:--2----------3-3-3...---5-5-5...-----------------------5---0-----------------
E:-/0-0-0...-------------------------------------------------------------------]
   p.m. . . . . . . . . . . . . . .

4:01

[e:-----------------------------------------------------------------------------
B:-----------------------------------------------------------------------------
G:-------2-----------2-----5-----2-----4---------------------------------------
D:-2-----2-----2-----2-----5-----2-----4---------------------------------------
A:-2-----0-----2-----0-0-2-3-----0-----2-2-2...--------------------------------
E:-0-----------0---------------------------------------------------------------]
                     p.m. . .
[e:-----------------------------------------------------------------------------
B:-----------------------------------------------------------------------------
G:----------2-----------------2--------5--------2-----------------7------------
D:-2--------2--------2--------2--------5--------2--------2--------7----------2-
A:-2--------0-0-0...-2--------0-0-0...-3-3-3...-0-0-0...-2--------5-5-5...---2-
E:-0-0-0...----------0-0-0...----------------------------0-0-0...------------0-]
   p.m. . . . . . . . . . . . . . . . . . . . . . . . . . . . . . . . . .

-

Text:		Nymphomaniac Fantasia

The scent of a woman was not mine...

Welcome home darling
Did you miss me?
Wish to dwell in dear love?

Touch my milklike skin
Feel the ocean
Lick my deepest
Hear the starry choir

Rip off this lace
That keeps me imprisoned
But beware of the enchantment
For my eroticism is oblivion

Old love lies deep you said
Deeper shall be the wound between your legs

-

Перевод:	Запах женщины не был моим,
Добро пожаловать, милый, домой,
Ты скучал обо мне?
Хочешь ли жить в сердечной любви?

Коснись моей молочной кожи,
Почувствуй океан.
Коснись меня,
Послушай песню звёзд.

Разрежь кружева,
Что держат меня в заточении,
Но остререгайся очарования,
Мой эротизм - твоё забвение.

Ты говоришь, что старая любовь скрыта глубоко,
Глубже "раны" между твоих ног.

-

Перевод:	Нимфоническая Фантазия

Добро пожаловать домой, мой дорогой,
О, как могли меня вы упустить,
Хотите погрузиться в нескончаемый покой,
В любой, коей нам вовек не оценить?

Дотронься до моей молочной кожи,
Почувствуй в ней ты океан,
Вылизывая ты океанских гор подножья,
Услышь и хор коей звездами придан.

О, отдирай шнурки, заколки,
Которые мой пыл пока что в заключении хранят,
Но берегись - очарованья эротизм хоть тонкий,
И ты, и многие как в заключении в нем спят.
Добавлено: 28.12.2013
Другие материалы по этой песне:

Страница создана 21.02.2012
http://primanota.ru/nightwish/nymphomaniac-fantasia-chords.htm
Привет, Гость.
Предлагаем пройти революционный курс по гитаре.
Подарок от PrimaNota.Ru, забирай!