PrimaNota.ru - самый крупный в мире бесплатный архив песенных текстов, аккордов, табулатур и нот


Nightwish - My Walden - таба, видео

Регистрация Запомнить меня
Войти через:  Facebook Google Twitter Vk Yandex Mail.ru

Nightwish - My Walden - таба, видео

Печатать
Просмотров: 183
Авторы музыки: Marco Hietala, Tuomas Holopainen
Авторы текста: Marco Hietala, Tuomas Holopainen
Nightwish - My Walden

Tuning: Standard D

Tab by DreamSlayer88


Intro solo:

e|------------------------------------------------------------|
B|---------------9-10-9--------------------9-10-12-14-12-10-9-|
G|-11-11-9----11--------11-9-------------9--------------------|
D|---------11~---------------11~9----9-9----------------------|
A|--------------------------------12--------------------------|
E|------------------------------------------------------------|

e|---------------------------------------------------------------|
B|---------------9-10-9h10p9-------------------------------------|
G|-11-11-9----11-------------11-9--------------------------------|
D|---------11~--------------------11~9----9~--9~--9-9-11-12-11-9-|
A|-------------------------------------12---7---7----------------|
E|---------------------------------------------------------------|
                                                    M M

Intro chords:

e|-------------------------|
B|-------------------------|
G|---7-----------7---------|
D|-4-7-4-2-7-7-4-7-4-2-4-2-|
A|-4-5-4-2-7-7-4-5-4-2-4-2-|
E|-2-5-2-0-5-4-2-5-2-0-2-0-|


Verse: -

Pre Chorus:

e|-------|
B|-------|
G|---7-9-|
D|-7-7-9-|
A|-7-5-7-|
E|-5-5-7-|


Chorus:

e|-------------------------|
B|-------------------------|
G|-------------------------|
D|-4-4-7-7-7-7-7-7-7-7-7-2-|
A|-4-4-7-7-7-7-7-7-7-7-7-2-|
E|-2-2-5-5-5-5-5-5-5-5-5-0-|

         M M   M M   M M

e|-------------------------------|
B|-------------------------------|
G|---------------------------2-4-|
D|-4-4-7-7-2-2-2-2-2-2-2-2-2-2-4-|
A|-4-4-7-7-2-2-2-2-2-2-2-2-2-0-2-|
E|-2-2-4-5-0-0-0-0-0-0-0-0-0-----|

             M M   M M   M M


Verse

Pre Chorus

Chorus 2x

Solo

e|------------------------------------------------------------|
B|---------------9-10-9--------------------9-10-12-14-12-10-9-|
G|-11-11-9----11--------11-9-------------9--------------------|
D|---------11~---------------11~9----9-9----------------------|
A|--------------------------------12--------------------------|
E|------------------------------------------------------------|

e|---------------------------------------------------------------|
B|---------------9-10-9h10p9-------------------------------------|
G|-11-11-9----11-------------11-9--------------------------------|
D|---------11~--------------------11~9----9~--9~--9-9-11-12-11-9-|
A|-------------------------------------12---7---7----------------|
E|---------------------------------------------------------------|

2:35 - 3:49:

e|-----------------------------------------------------------------|
B|-----------------------------------------------------------------|
G|-----------------------7-7---------7-7---------------------------|
D|-4-----4-4-4---4-----2-7-7-2-4---2-7-7-2-4-4---2-4---7-2-4---2-4-|
A|-4-----4-4-4---4-----2-5-5-2-4---2-5-5-2-4-4---2-4---7-2-4---2-4-|
E|-2-----2-2-2---2-----0-5-5-0-2---0-5-5-0-2-2---0-2---5-0-2---0-2-|

         M M

   2:35  2:45    2:50  2:55        3:05          3:14  3:18    3:24


3:26 - 3:49

e|---------|
B|---------|
G|-------4-|
D|-4-7-2-4-|
A|-4-7-2-2-|
E|-2-5-0-2-|


e|-----------------------------------------|
B|-----------------------------------------|
G|-----------------------------------------|
D|-4-4-4-4-4-4-4-4-4-4-4-4-4-4-4-4-4-4-4-2-|
A|-4-4-4-4-4-4-4-4-4-4-4-4-4-4-4-4-4-4-4-2-|
E|-2-2-2-2-2-2-2-2-2-2-2-2-2-2-2-2-2-2-2-0-|

     M M M M M M M M M M M M M M M M M

e|-----------------------------------------|
B|-----------------------------------------|
G|-----------------------------------------|
D|-4-4-4-4-4-4-4-4-4-4-4-4-4-4-4-4-4-4-7-2-|
A|-4-4-4-4-4-4-4-4-4-4-4-4-4-4-4-4-4-4-7-2-|
E|-2-2-2-2-2-2-2-2-2-2-2-2-2-2-2-2-2-2-5-0-|

     M M M M M M M M M M M M M M M M M

e|-----------------------------------------|
B|-----------------------------------------|
G|-----------------------------------------|
D|-4-4-4-4-4-4-4-4-4-4-4-4-4-4-4-4-4-4-4-2-|
A|-4-4-4-4-4-4-4-4-4-4-4-4-4-4-4-4-4-4-4-2-|
E|-2-2-2-2-2-2-2-2-2-2-2-2-2-2-2-2-2-2-2-0-|

     M M M M M M M M M M M M M M M M M

e|--------------------------------|
B|--------------------------------|
G|-----------------------------4--|
D|-4-4-4-4-4-4-4-4-4-4-4-4-7-2-4--|
A|-2-2-2-2-2-2-2-2-2-2-2-4-7-2-2--|
E|-2-2-2-2-2-2-2-2-2-2-2-2-5-0-2--|

     M M M M M M M M M M


3:49 - 4:08


e|---------------------------------|
B|---------------------------------|
G|---------------------------------|
D|-4-4-4-4-4-4-4-4-4-4-4-4-4-4-4-2-|
A|-2-2-2-2-2-2-2-2-2-2-2-2-2-2-2-2-|
E|-2-2-2-2-2-2-2-2-2-2-2-2-2-2-2-0-|

     M M M M M M M M M   M M M


e|---------------------------------|
B|---------------------------------|
G|---------------------------------|
D|-4-4-4-4-4-4-4-4-4-4-4-4-4-4-7-2-|
A|-2-2-2-2-2-2-2-2-2-2-2-2-2-2-7-2-|
E|-2-2-2-2-2-2-2-2-2-2-2-2-2-2-5-0-|

     M M M M M M M M M   M M M


e|---------------------------------|
B|---------------------------------|
G|---------------------------------|
D|-4-4-4-4-4-4-4-4-4-4-4-4-4-4-4-2-|
A|-2-2-2-2-2-2-2-2-2-2-2-2-2-2-2-2-|
E|-2-2-2-2-2-2-2-2-2-2-2-2-2-2-2-0-|

     M M M M M M M M M   M M M


e|------------------------------|
B|------------------------------|
G|------------------------------|
D|-4-4-4-4-4-4-4-4-4-4-4-7-2-4~-|
A|-2-2-2-2-2-2-2-2-2-2-2-7-2-2~-|
E|-2-2-2-2-2-2-2-2-2-2-2-5-0----|

     M M M M M M M M M


4:09 - 4:39

e|-----------------------------------------|
B|-----------------------------------------|
G|-----------------------------------------|
D|-4-4-4-4-4-4-4-4-4-4-4-4-4-4-4-4-4-4-4-2-|
A|-4-4-4-4-4-4-4-4-4-4-4-4-4-4-4-4-4-4-4-2-|
E|-2-2-2-2-2-2-2-2-2-2-2-2-2-2-2-2-2-2-2-0-|

     M M M M M   M M M M M   M M M M M


e|-----------------------------------------|
B|-----------------------------------------|
G|-----------------------------------------|
D|-4-4-4-4-4-4-4-4-4-4-4-4-4-4-4-4-4-4-7-2-|
A|-4-4-4-4-4-4-4-4-4-4-4-4-4-4-4-4-4-4-7-2-|
E|-2-2-2-2-2-2-2-2-2-2-2-2-2-2-2-2-2-2-5-0-|

     M M M M M   M M M M M   M M M M M

e|-----------------------------------------|
B|-----------------------------------------|
G|-----------------------------------------|
D|-4-4-4-4-4-4-4-4-4-4-4-4-4-4-4-4-4-4-4-2-|
A|-4-4-4-4-4-4-4-4-4-4-4-4-4-4-4-4-4-4-4-2-|
E|-2-2-2-2-2-2-2-2-2-2-2-2-2-2-2-2-2-2-2-0-|

     M M M M M   M M M M M   M M M M M

e|---------------------------------|
B|---------------------------------|
G|-------------------------------4-|
D|-4-4-4-4-4-4-4-4-4-4-4-4-4-7-2-4-|
A|-4-4-4-4-4-4-4-4-4-4-4-4-4-7-2-2-|
E|-2-2-2-2-2-2-2-2-2-2-2-2-2-5-0-2-|

     M M M M M   M M M M M


h - hammer on
p - pull off
~ - vibrato
M - palm mute
Добавлено: 18.09.2015
Другие материалы по этой песне:
  • Аккорды и текст

Страница создана 18.09.2015
http://primanota.ru/nightwish/my-walden-chords.htm
Привет, Гость.
Предлагаем пройти революционный курс по гитаре.
Подарок от PrimaNota.Ru, забирай!