PrimaNota.ru - самый крупный в мире бесплатный архив песенных текстов, аккордов, табулатур и нот


Nightwish - Fantasmic - аккорды и текст, таба, бас-таба, перевод, видео

Регистрация Запомнить меня
Войти через:  Facebook Google Twitter Vk Yandex Mail.ru

Nightwish - Fantasmic - аккорды и текст, таба, бас-таба, перевод, видео

Печатать
Просмотров: 271
Авторы музыки: Tuomas Holopainen
Авторы текста: Tuomas Holopainen
Fantasmic
Nightwish
tuning:		Dropped D-tuning (DADGBE)

--------
Part I:
--------

Keyboard Intro

 Gtr I & Keyboards

  E5
--------------------------------------------------------
--------------------------------------------------------
--------------------------------------------------------
--2-------------2-2-----------2-------------2-2---------
--2-------------2-2-----------2-------------2-2---------
--2-------------2-2-----------2-------------2-2---------

Band enters

 Gtr II (w/Wah-Wah)

  E5							      2 x
-------------------------------------------------------------
-------------(3)(5)------------------------------------------
-----4-4--5--7--9--4-4--5--2----4-4-2----------------------
---------------------------------------5--4--4--4-5--2-----
-------------------------------------------------------------
-------------------------------------------------------------

  E5				   A5   C5   D5          C5  G5   G5/F#
--------------------------------------------------------------------------
--------------(3)(5)------------------------------------------------------
-------4-4--5--7--9--4-4--5--2-------------------------------------------- Gtr II
--------------------------------------------------------------------------
-------------------------------------3--5~~~~-----3-----------------
---------------------------------7----------------------5--4~~~~----
				   a.h a.h  a.h.	 a.h a.h  a.h.	     
--------------------------------------------------------------------------
--------------------------------------------------------------------------
----------------------------------2--------------------------------------- Gtr I
----------------------------------2----5----7----------5------------------
----------------------------------0----3----5----------3----5----5--------
------------------------------------------------------------5----4--------

  E5
--------------------------------------------------------------
--------------------------------------------------------------
-------4-4--5--7--9--4-4--5--2----4-4-2-----------------------
-----------------------------------------5--4--4--4-5--2------
--------------------------------------------------------------
--------------------------------------------------------------

  E5
--------------------------------------------------------------
--------------------------------------------------------------
-------4-4--5--7--9--4-4--5--2--------------------------------Gtr II
----------------------------------2---0-----------------------
----------------------------------2---0-----------------------
----------------------------------2---0--5-7-3~~~~------
					   a.h.a.h.a.h.		
--------------------------------------------------------------
--------------------------------------------------------------
--------------------------------------------------------------Gtr I
----------------------------------2---0---5---7---3-----------
----------------------------------2---0---5---7---3-----------
----------------------------------2---0---5---7---3-----------

		  E5
-----------------------------------------------------------
-----------------------------------------------------------
-----4-4--5--7--9--4-4--5--2----4-4-2----------------------
---------------------------------------5--4--4--4-5--2-----
-----------------------------------------------------------
-----------------------------------------------------------

  E5				   A5   C5   D5          C5  G5   G5/F#
--------------------------------------------------------------------------
--------------------------------------------------------------------------
-------4-4--5--7--9--4-4--5--2-------------------------------------------- Gtr II
--------------------------------------------------------------------------
-------------------------------------3--5~~~~-----3-----------------
---------------------------------7----------------------5--4~~~~----
				   a.h a.h  a.h.	 a.h a.h  a.h.	     
--------------------------------------------------------------------------
--------------------------------------------------------------------------
----------------------------------2--------------------------------------- Gtr I
----------------------------------2----5----7----------5------------------
----------------------------------0----3----5----------3----5----5--------
------------------------------------------------------------5----4--------

Verse riff:

  Gtr I & Gtr II

    E5					     C5    D5
-----------------------------------------------------
-----------------------------------------------------
----------------------------------------------------
--2----2--2-2-2--2--2------2----2---------5----7----
---2----2--2-2-2--2--2------2----2---------3----5----
---2----2--2-2-2--2--2------2----2-------------------
          .  . . .  .  .

  E5
--------------------------------------------------------------------
--------------------------------------------------------------------
--------------------------------------------------------------------
--2----2--2-2-2--2--2--------2----2---------------------------------
--2----2--2-2-2--2--2--------2----2---------7-9-10-9-7-9-7~~~~----
--2----2--2-2-2--2--2--------2----2---------------------------------
        .  . . .  .  .              .         . . . . . .  a.h.

  E5					          C5       D5
------------------------------------------------------------
------------------------------------------------------------
------------------------------------------------------------
--2----2--2-2-2--2--2--------2----2-------------5--------7--
--2----2--2-2-2--2--2--------2----2---------3-3-3----5-5-5--
--2----2--2-2-2--2--2--------2----2-------------------------
        .  . . .  .  .              .         . .      . .

 E5			      E5     D5  G5  A5  G5   D5
------------------------------------------------------------
------------------------------------------------------------
-----------------------------------------------------------
--2----2--2-2-2--2--2--------2------0---5---7---3---0------
--2----2--2-2-2--2--2--------2------0---5---7---3---0-------
--2----2--2-2-2--2--2--------2------0---5---7---3---0-------
        .  . . .  .  .

 -Modulation from E minor to C# minor

    C#m(5)				     2 x
------------------------------------------------------------
------------------------------------------------------------
------------4--6------------------------------------------
--6-6-6--7-------6--6--7-4----6-6-6--4--------------------
-----------------------------------------7--6--6--6--7--4---
------------------------------------------------------------

    C#m(5)       F#m(5) A5   B5(=H5)     A5   E5   E5/D#
-----------------------------------------------------------------------
-----------------------------------------------------------------------
-------------4--6------------------------------------------------------ Gtr II
---6-6-6--7-------6--6--7-4--------------------------------------------
---------------------------------------------------------7--6------
-------------------------------4--7--9--------7----------------
				 a.h. a.h. a.h.        a.h. a.h. a.h.	  
-----------------------------------------------------------------------
-----------------------------------------------------------------------
----------------------------------------------------------------------- Gtr I
--------------------------------4----7----9----------7----9----9-------
--------------------------------4----7----9----------7----7----6-------
--------------------------------4----7----9----------7-----------------

 2nd Verse riff:

  Gtr I & Gtr II

    E5					     C5    D5
------------------------------------------------------
------------------------------------------------------
------------------------------------------------------
----2----2--2-2-2--2--2------2----2---------5----7----
----2----2--2-2-2--2--2------2----2---------3----5----
----2----2--2-2-2--2--2------2----2-------------------
          .  . . .  .  .

  E5
--------------------------------------------------------------------
--------------------------------------------------------------------
--------------------------------------------------------------------
--2----2--2-2-2--2--2--------2----2---------------------------------
--2----2--2-2-2--2--2--------2----2---------7-9-10-9-7-9-7~~~~----
--2----2--2-2-2--2--2--------2----2---------------------------------
        .  . . .  .  .              .         . .  . . . .  a.h.

  E5					          C5       D5
------------------------------------------------------------
------------------------------------------------------------
------------------------------------------------------------
--2----2--2-2-2--2--2--------2----2-------------5--------7--
--2----2--2-2-2--2--2--------2----2---------3-3-3----5-5-5--
--2----2--2-2-2--2--2--------2----2-------------------------
        .  . . .  .  .              .         . .      . .

 E5			      E5      D5 G5  A5  G5  D5
------------------------------------------------------------
------------------------------------------------------------
------------------------------------------------------------
--2----2--2-2-2--2--2--------2------0---5---7---3---0-------
--2----2--2-2-2--2--2--------2------0---5---7---3---0-------
--2----2--2-2-2--2--2--------2------0---5---7---3---0-------
        .  . . .  .  .

Guitar taced

(A5)
Wish upon a a star
       (G5) (A5)
Believe in will
			  (G5)(F#5)
The realm of the king of fanta-sy
		       (E5) (F#5)
The master of the tale-like lore
(F#)(E5) A5	 ----- guitar enters!
The way to kindom I adore
		      G5 A5
Where warrior's heart is pure
		  A5   G5    F#5
Where the stories will come true

F#5
Wish upon a a star
	E5 F#5
Believe in will
			 F#5 E5 D#5
The realm of the king of fan-ta-sy
		       C#5  D#5
The master of the tale-like lore
		 C#5 D#5
The way to kindom I  adore

   A5				  G5
-----------------------------------------------------------------
-----------------------------------------------------------------
--------------------------------0-0-0-0-7p0-9p0-10p0-9p0-7p0-9--
-----------2-3-----------5-3------------------------------------
---0-0-0-0-------0-0-0-0-----------------------------------------
-----------------------------------------------------------------
     . . . .       . . . .          . . . .

  A5
-----------------------------------------------------------------
------------------------------------------5----------------------
---------------------------------5---5--7----7--4----------------
------------2-3-----------5-3----------------------5-------------
---0-0-0-0-------0-0-0-0-----------------------------------------
-----------------------------------------------------------------
    . . . .       . . . .

   F5               D5               A5
-----------------------------------------------------------------
-----------------------------------------------------------------
----------------------------------------------------------------
---3---------------7---------------7----------------------------
---3---------------5---------------7-----------------------------
---3-------------------------------7-----------------------------

--------
Part II:
--------

A cub of the king betrayed by usurper
A girl in the rain swearing to her fathers name
Belle the last sight for the dying gruesome
The beauties sleeping awaiting
Deep in a dream
For true love's first kiss

                                       (delay repeats)
[-----------------------------------------------------------------------------
----------------(8)/10~~----10~~--5----5--6--8~~--6-8----10~~-(10)-(10~~)---
---5--(5)/7~~--------------------------------------------------------------5-
-----------------------------------------------------------------------------
-----------------------------------------------------------------------------
-----------------------------------------------------------------------------]

------------------------------------------------------------------------------
-----------(8)/10~~----10~~--5----5--6--8~~--6-5-----------------------------
-(5)/7~~---------------------------------------------7~-----5p4-------5p4-----
-----------------------------------------------------------------7~~-------7~~
------------------------------------------------------------------------------
------------------------------------------------------------------------------

---------
Part III:
---------

Notice:		I took this part from "From Wishes to Eternity - Live"-DVD.

  A5
------------------------------------------------------------------------
------------------------------------------------------------------------
------------------------------------------------------------------------
-7-7-7-7-7-7-7-7--7-7-7-7-7-7-7-7--7-7-7-7-7-7-7-7--7-7-7-7-7--5--5--7--
-7-7-7-7-7-7-7-7--7-7-7-7-7-7-7-7--7-7-7-7-7-7-7-7--7-7-7-7-7--5--5--7--
-7-7-7-7-7-7-7-7--7-7-7-7-7-7-7-7--7-7-7-7-7-7-7-7--7-7-7-7-7--5--5--7--
  . . . . . . . .   . . . . . . . .   . . . . . .

  G5 A5    G5 A5    A5    D5 G5     C5   G5 A5   A5      G5 A5    G5 A5
------------------------------------------------------------------
--------------------

-

Text:

Part 1

Wish upon a star
Take a step enter the land
Walk through the air
Take my hand
Wishmaster's will-
Join him the quest for dream
A make-believe
Is all we ever need

Wish upon a star
No matter who you are
The second star to the right
Harbinger's gate
Beyond the boundaries
Blossom ballet
In the great wide somewhere

Wish upon a star
Believe in will
The realm of the king of fantasy
The master of the tale-like lore
The way to kingdom I adore
Where the warrior's heart is pure
Where the stories will come true

Part 2

A cub of the king betrayed by usurper
A girl in the rain swearing to her father's name
Belle the last sight for the dying gruesome
The beauties sleeping awaiting
Deep in a dream
For true love's first kiss

Part 3

Bald Mountain Night
Devilheart endures but light
A mad aerial dance
Chernabog's succubi

Black Cauldron born
Gurgi's heart forlorn
Pig-keeper or hero
On a quest of augury

Maleficent's fury
The spindle so luring
Dragon fight, dying night
Dooming might

Apprentice of Yen Sid
Conducting the galaxy
Dreamer on mountaintop
Spellbound masquerade

The Sailor an idol for the six-year-old in me
The Phoenix of White Agony Creek
Enchantress, A mermaid in a tale as old as time
A Dragonslayer, The Awakener

Wish upon a star...

Комментарий:	Fantasmic - очередная дань королю фэнтэзи.
Я многим обязан ему...

-

Перевод:

Часть 1

Это желание в звездном свете,
Сделай шаг - войти ты в землю,
Шагай сквозь воздух в этом свете,
Возми мою руку пред этой дверью.

Властитель желаний возьмет его
В поиск, с страну мечтаний дивных,
И в этом вера придана всего,
И это все желания:

Это желание в звездном свете,
Вы все вне тел, вы вне материй,
Вторая звезда ярко светит -
И в свете том врата - к непознанному двери.

А за пределом врат тех дивных,
Цветов чарующий балет,
Границ простораи тем не видно,
Повсюду свет - сребристый свет.

Это желание в звездном свете,
Поверь в силу воли своей,
Владенья короля фантазий путь осветят,
В нем мудрость сказочной земли сией.

Если сердце воина пылает -
Сказанье к истине свое движенье направляет.

Часть 2

Наследника престола свергнул узурпатор,
Но девушка в дожде отцовским именем клятву отдавала.
Последний раз его дыхание ловила.
Красота спит, ожидает,
Глубоко в мечтаниях,
Когда придет истинной любви первый поцелуй.

Часть 3

Вот вершина лысой горы,
Здесь сердце дьявола трепещет,
И в воздухе танцуют духов своры,
Суккубус своим могучим гласом блещет.

Черный котел кипит,
Отверженного Гурги сердце,
Герой то, иль то свинья дорогу сторожит,
И как найти хотя б к знаменью дверцу.

Вот ярость безпредельна навалилась,
Дракон летит - и пламень,
Ночь вся в пламень обратилась,
Погибель давит словно камень.

Мореход сказаний мира дивного во мне,
Феникс - вот белой горячки прилив,
Очарование, русалка древняя как время,
Дракон-Убийца, Пробуждение...

Это желание в звездном свете...

-

Sami

[G------------------------------------------------------------------------
D------------------------------------------------------------------------
A------------------------------------------------------------------------
E------------------------------------------------------------------------

-----------------------------------------------------------
-----------------------------------------------------------
-----------------------------------------------------------
--0--------------0----0------------------0--------------0--

------------------------------------------------------------------------
------------------------------------------------------------------------
------------------------------------------------------------------------
--0--------------------------0----0----0----0------0----0----0----0--0--

-------------------------------------------------------------------
-------------------------------------------------------------------
-------------------------------------------------------------------
--0----0----0----0------0----0----0----0--0----0----0----0----0----

------------------------------------------------------------------
------------------------------------------------------------------
---------------------------------------------------3---5----------
--0----0----0----0--0----0----0----0----0------3------------------

------------------------------------------------------------------
------------------------------------------------------------------
--3---------------------------------------------------------------
------3---2------------0----0----0----0------0----0----0----0--0--

------------------------------------------------------------------
------------------------------------------------------------------
------------------------5-----------------------------------------
--0----0----0----0----------3---5---1---------0----0----0----0----

------------------------------------------------------------------
------------------------------------------------------------------
---------------------------------------------------3---5----------
--0----0----0----0--0----0----0----0----0------3------------------

-----------------------------------------------------------------------------
-----------------------------------------------------------------------------
--3----------------------------------------------------------------3----5----
------3---2------------0--0-0-0--0-0-0--0-0-0--0-0---0--0-0-0--0-0-----------

-------------------------------------------------------
-------------------------------------------------------
-------------------------------------------------------
--0--0-0-0--0-0-0--0-0-0--0-0---0--0-0-0--0-0-0--------

------------------------------------------------------------
------------------------------------------------------------
----------------------------------------------3-3-3--5-5-5--
--0--0-0-0--0-0-0--0-0-0--0-0---0--0-0-0--0-0---------------

----------------------------------------------------------
----------------------------------------------------------
----------------------------------------------------------
--0--0-0-0--0-0-0--0-0-0--0-0---0--0-0-0--0-0-3--5--4--1--

--------------------------------------------------------
--------------------------------------------------------
----------------------------------------------3----5----
--0--0-0-0--0-0-0--0-0-0--0-0---0--0-0-0--0-0-----------

-------------------------------------------------------
-------------------------------------------------------
-------------------------------------------------------
--0--0-0-0--0-0-0--0-0-0--0-0---0--0-0-0--0-0-0--------

------------------------------------------------------------
------------------------------------------------------------
----------------------------------------------3-3-3--5-5-5--
--0--0-0-0--0-0-0--0-0-0--0-0---0--0-0-0--0-0---------------

----------------------------------------------------------
----------------------------------------------------------
----------------------------------------------------------
--0--0-0-0--0-0-0--0-0-0--0-0---0--0-0-0--0-0-3--5--4--1--

--------------------------------------------------------------------
--------------------------------------------------------------------
--4-4-4-4-4-4-4-4-4-4-4-4-4-4-4-4---4-4-4-4-4-4-4-4-4-4-4-4-4-4-4-4-
--------------------------------------------------------------------

--------------------------------------------------------------------
--------------------------------------------------------------------
--4-4-4-4-4-4-4-4-4-4-4-4-4-4-4-4---4-4-4-4-4-4-4-4-4-4-4-4-4-4-4-4-
--------------------------------------------------------------------

--------------------------------------------------------------------
--------------------------------------------------------------------
--4-4-4-4-4-4-4-4-4-4-4-4-4-4-4-4---4-4-4-4-4-4-4-4-4-4-4-4-4-4-4-4-
--------------------------------------------------------------------

----------------------------------------------------------------------------
----------------------------------------------------------------------------
--4-4-4-4-4-4-4-4-4-4-4-4-4-4-4-4-------2---0------------0-------6----------
------------------------------------0------------------------0--------------

--------------------------------------------------------
--------------------------------------------------------
----------------------------------------------3----5----
--0--0-0-0--0-0-0--0-0-0--0-0---0--0-0-0--0-0-----------

-------------------------------------------------------
-------------------------------------------------------
-------------------------------------------------------
--0--0-0-0--0-0-0--0-0-0--0-0---0--0-0-0--0-0-0--------

------------------------------------------------------------
------------------------------------------------------------
----------------------------------------------3-3-3--5-5-5--
--0--0-0-0--0-0-0--0-0-0--0-0---0--0-0-0--0-0---------------

--------------------------------------------------------------------------
--------------------------------------------------------------------------
--------------------------------------------------------------------------
--0--0-0-0--0-0-0--0-0-0--0-0---0--0-0-0--0-0-3--5--4--1------------------

-----------------------------------------------
-----------------------------------------------
-----------------------------------------------
------------------------------5----------------

-------------------------------------------------------
-------------------------------------------------------
-------------------------------------------------------
--2-2-2-2-2--2--2-2-2-2-2--2----2-2-2-2-2--2--0--------

-------------------------------------------------------
-------------------------------------------------------
-------------------------------------------------------
--2-2-2-2-2--2--2-2-2-2-2--2----2-2-2-2-2--2--0--------

--------------------------------------------------------------------
--------------------------------------------------------------------
--6-6-6-6-6-6-6-6-6-6-6-6-6-6-6-6---6-6-6-6-6-6-6-6-4-4-4-4-4-4-4-4-
--------------------------------------------------------------------

--------------------------------------------------------------------
--------------------------------------------------------------------
--6-6-6-6-6-6-6-6-6-6-6-6-6-6-6-6---6-6-6-6-6-6-6-6-4-4-4-4-4-4-4-4-
--------------------------------------------------------------------

-------------------------------------------------------
-------------------------------------------------------
-------------------------------------------------------
--2-2-2-2-2--2--2-2-2-2-2--2----2-2-2-2-2--2--0--------

-------------------------------------------------------
-------------------------------------------------------
-------------------------------------------------------
--2-2-2-2-2--2--2-2-2-2-2--2----2-2-2-2-2--2--0--------

--------------------------------------------------------------------
--------------------------------------------------------------------
--6-6-6-6-6-6-6-6-6-6-6-6-6-6-6-6---6-6-6-6-6-6-6-6-4-4-4-4-4-4-4-4-
--------------------------------------------------------------------

--------------------------------------------------------------------
--------------------------------------------------------------------
--6-6-6-6-6-6-6-6-6-6-6-6-6-6-6-6---6-6-6-6-6-6-6-6-4-4-4-4-4-4-4-4-
--------------------------------------------------------------------

------------------------------------------------------------
------------------------------------------------------------
--0-0-0-0-----0-0-0-0---------------------------------------
----------------------------3-3-3-3-3-3-3-3-3-3-3-3-3-3-3-3-

------------------------------------------------------------
------------------------------------------------------------
--0-0-0-0-----0-0-0-0-------3-3-3-3-3-3-3-3-3-3-3-3-3-3-3-3-
------------------------------------------------------------

--------------------------------------------------------------------
--------------------------------------------------------------------
------------------------------------5-5-5-5-5-5-5-5-5-5-5-5-5-5-5-5-
--1-1-1-1-1-1-1-1-1-1-1-1-1-1-1-1-----------------------------------

--------------------------------------------------------------------
--------------------------------------------------------------------
--------------------------------------------------------------------
--5-5-5-5-5-5-5-5-5-5-5-5-5-5-5-5---5-5-5-5-5-5-5-5-5-5-5-5-5-5-5-5-

------------------------------------------------------------
------------------------------------------------------------
--0-0-0-0-----0-0-0-0---------------------------------------
----------------------------3-3-3-3-3-3-3-3-3-3-3-3-3-3-3-3-

------------------------------------------------------------
------------------------------------------------------------
--0-0-0-0-----0-0-0-0-------3-3-3-3-3-3-3-3-3-3-3-3-3-3-3-3-
------------------------------------------------------------

--------------------------------------------------------------------
--------------------------------------------------------------------
------------------------------------5-5-5-5-5-5-5-5-5-5-5-5-5-5-5-5-
--1-1-1-1-1-1-1-1-1-1-1-1-1-1-1-1-----------------------------------

--------------------------------------------------------------------
--------------------------------------------------------------------
--------------------------------------------------------------------
--5-5-5-5-5-5-5-5-5-5-5-5-5-5-5-5---5-5-5-5-5-5-5-5-5-5-5-5-5-5-5-5-

-------------------------------------------------------------------------
-------------------------------------------------------------------------
-------------------------------------------------------------------------
--5----------------------------------------------------------------------

------------------------------------------------------------------------
------------------------------------------------------------------------
------------------------------------------------------------------------
------------------------------------------------------------------------

------------------------------------------------------------------------
------------------------------------------------------------------------
------------------------------------------------------------------------
------------------------------------------------------------------------

------------------------------------------------------------------------
------------------------------------------------------------------------
------------------------------------------------------------------------
------------------------------------------------------------------------

------------------------------------------------------------------------
------------------------------------------------------------------------
------------------------------------------------------------------------
------------------------------------------------------------------------

------------------------------------------------------------------------
------------------------------------------------------------------------
------------------------------------------------------------------------
------------------------------------------------------------------------

------------------------------------------------------------------------
------------------------------------------------------------------------
------------------------------------------------------------------------
------------------------------------------------------------------------

------------------------------------------------------------------------
------------------------------------------------------------------------
------------------------------------------------------------------------
------------------------------------------------------------------------

------------------------------------------------------------------------
------------------------------------------------------------------------
------------------------------------------------------------------------
------------------------------------------------------------------------

------------------------------------------------------------------------
------------------------------------------------------------------------
------------------------------------------------------------------------
------------------------------------------------------------------------

------------------------------------------------------------------------
------------------------------------------------------------------------
------------------------------------------------------------------------
------------------------------------------------------------------------

------------------------------------------------------------------------
------------------------------------------------------------------------
------------------------------------------------------------------------
------------------------------------------------------------------------

------------------------------------------------------------------------
------------------------------------------------------------------------
------------------------------------------------------------------------
------------------------------------------------------------------------

------------------------------------------------------------------------
------------------------------------------------------------------------
------------------------------------------------------------------------
------------------------------------------------------------------------

------------------------------------------------------------------------
------------------------------------------------------------------------
------------------------------------------------------------------------
------------------------------------------------------------------------

------------------------------------------------------------------------
------------------------------------------------------------------------
------------------------------------------------------------------------
------------------------------------------------------------------------

----------------------------------------------------
----------------------------------------------------
----------------------------------------------------
--5--5--5--5--5--5--5--5----5--5--5--5--5--5--5--5--

-----------------------------------------------------------------------
-----------------------------------------------------------------------
-----------------------------------------------------------------------
--5--5--5--5--5--5--5--5----5--5--5--5--5--3----3----5--------------3--

---------------------------------------------------------------
---------------------------------------------------------------
--------------------------------5----8----------3--------------
--5----------3--5------5-------------------------------3--5----

--------------------------------------------------------------
--------------------------------------------------------------
----------------------------------------------------5----8----
--5--------------3----5----------3--5------5------------------

---------------------------------------------------
---------------------------------------------------
------3--------------------------------------------
-------------3--5------2--2-2-2--2-2-2--2-2-2--2-2-

--------------------------------------------------------------------------
--------------------------------------------------------------------------
-------------------------------------------2----5----------0--------------
--2--2-2-2--2-2-2--0--2------2--2-2-2--2-2------------------------0--2----

---------------------------------------------------------
---------------------------------------------------------
---------------------------------------------------------
--2--2-2-2--2-2-2--2-2-2--2-2---2--2-2-2--2-2-2--0--2----

-----------------------------------------------
-----------------------------------------------
----------------2----5----------0--------------
--2--2-2-2--2-2------------------------0--2----

--------------------------------------------------------------------
--------------------------------------------------------------------
--------------------------------------------------------------------
--5-5-5-5-5-5-5-5-5-5-5-5-5-5-5-5---5-5-5-5-5-5-5-5-5-5-5-5-5-5-5-5-

----------------------------------------------------------
----------------------------------------------------------
------------------5-5-5-5-5-5-5-5-----------3---5---1--1--
--3-3-3-3-3-3-3-3-------------------5---3-----------------

--------------------------------------------------------------------
--------------------------------------------------------------------
--------------------------------------------------------------------
--5-5-5-5-5-5-5-5-5-5-5-5-5-5-5-5---5-5-5-5-5-5-5-5-5-5-5-5-5-5-5-5-

----------------------------------------------------------------
----------------------------------------------------2--0--------
------------------5-5-5-5-5-5-5-5-------------------------3--2--
--3-3-3-3-3-3-3-3-------------------1-1-1-1-1-1-1-1-------------

---------------------------------------------------------
---------------------------------------------------------
---------------------------------------------------------
--2--2-2-2--2-2-2--2-2-2--2-2---2--2-2-2--2-2-2--0--2----

-----------------------------------------------
-----------------------------------------------
----------------2----5----------0--------------
--2--2-2-2--2-2------------------------0--2----

----------------------------------------------------------------
----------------------------------------------------------------
----------------------------------------------------------------
--2-2-2-2-2-2-2-2-2-2-2-2-2-2-2-2---2-2-2-2-2-2-2-2-2-2-0--2----

-------------------------------------------------
-------------------------------------------------
------------------2----5----------0--------------
--2-2-2-2-2-2-2-2------------------------0--2----

--------------------------------------------------------------------
--------------------------------------------------------------------
--------------------------------------------------------------------
--5-5-5-5-5-5-5-5-5-5-5-5-5-5-5-5---5-5-5-5-5-5-5-5-5-5-5-5-5-5-5-5-

----------------------------------------------------------
----------------------------------------------------------
------------------5-5-5-5-5-5-5-5-----------3---5---1--1--
--3-3-3-3-3-3-3-3-------------------5---3-----------------

--------------------------------------------------------------------
--------------------------------------------------------------------
--------------------------------------------------------------------
--5-5-5-5-5-5-5-5-5-5-5-5-5-5-5-5---5-5-5-5-5-5-5-5-5-5-5-5-5-5-5-5-

----------------------------------------------------------------
----------------------------------------------------2--0--------
------------------5-5-5-5-5-5-5-5-------------------------3--2--
--3-3-3-3-3-3-3-3-------------------1-1-1-1-1-1-1-1-------------

------------------------------------------------------
--2--0--------2--0------------------------------------
--------3--2--------3--2------------------------------
----------------------------0--0-0-1--0--0--0-0-1--0--

---------------------------------------------------------
---------------------------------------------------------
--1------------------------------------------------------
-----0--1--0-0-0--0-0-0--0-0---0--0-0-1--0--0--0-0-1--0--

----------------------------------------------------------
------------------2-3-2-----------------------------------
--1---------------------3-2-------------------------------
-----0--1--0--0-0-----------1---0--0-0-1--0--0--0-0-1--0--

---------------------------------------------------------
---------------------------------------------------------
--1------------------------------------------------------
-----0--1--0-0-0--0-0-0--0-0---0--0-0-1--0--0--0-0-1--0--

--------------------------------------------------------------------
------------------2-3-2---------------------------------------------
--1---------------------3-2-----0------------------1----------------
-----0--1--0--0-0-----------1---------------------------------------

----------------------------------------------------------------------------
----------------------------------------------------------------------------
--0-------------------------------------0------------------1----------------
---------------------0------------------------------------------------------

----------------------------------------------------------------------------
----------------------------------------------------------------------------
---------------------3------------------0------------------1----------------
--1-------------------------------------------------------------------------

----------------------------------------------------------------------------
----------------------------------------------------------------------------
--0-------------------------------------0------------------1----------------
---------------------0------------------------------------------------------

------------------------------------------------------------------
------------------------------------------------------------------
---------------------3--------------------------------------------
--1-------------------------------------0--0-0-1--0--0--0-0-1--0--

---------------------------------------------------------
---------------------------------------------------------
--1------------------------------------------------------
-----0--1--0-0-0--0-0-0--0-0---0--0-0-1--0--0--0-0-1--0--

----------------------------------------------------------
------------------2-3-2-----------------------------------
--1---------------------3-2-------------------------------
-----0--1--0--0-0-----------1---0--0-0-1--0--0--0-0-1--0--

---------------------------------------------------------
---------------------------------------------------------
--1------------------------------------------------------
-----0--1--0-0-0--0-0-0--0-0---0--0-0-1--0--0--0-0-1--0--

----------------------------------------------------------------------------
------------------2-3-2-----------------------------------------------------
--1---------------------3-2-----0-0-0------0-0-0--------0-0-0---------------
-----0--1--0--0-0-----------1--------------------------------------3--------

---------------------------------------------------------------------------
---------------------------------------------------------------------------
--0-0-0------0-0-0--------0-0-0----------------------0-0-0------0-0-0------
-------------------------------------3-3-3--3-3-3--------------------------

--------------------------------------------------
--------------------------------------------------
--0-0-0-----------------0-0-0------0-0-0----------
-------------3------------------------------------

--------------------------------------------------------------------
--------------------------------------------------------------------
--6-6-6-6-6-6-6-6-6-6-6-6-6-6-6-6---6-6-6-6-6-6-6-6-4-4-4-4-4-4-4-4-
--------------------------------------------------------------------

--------------------------------------------------------------------
--------------------------------------------------------------------
--6-6-6-6-6-6-6-6-6-6-6-6-6-6-6-6---6-6-6-6-6-6-6-6-4-4-4-4-4-4-4-4-
--------------------------------------------------------------------

--------------------------------------------------------------------
--------------------------------------------------------------------
--------------------------------------------------------------------
--2-2-2-2-2-2-2-2-2-2-2-2-2-2-2-2---2-2-2-2-2-2-2-2-0-0-0-0-0-0-0-0-

--------------------------------------------------------------------
--------------------------------------------------------------------
--------------------------------------------------------------------
--2-2-2-2-2-2-2-2-2-2-2-2-2-2-2-2---2-2-2-2-2-2-2-2-0-0-0-0-0-0-0-0-

--------------------------------------------------------------------
--------------------------------------------------------------------
--6-6-6-6-6-6-6-6-6-6-6-6-6-6-6-6---6-6-6-6-6-6-6-6-4-4-4-4-4-4-4-4-
--------------------------------------------------------------------

-----------------------------------------------------------------------
-----------------------------------------------------------------------
--6-6-6-6-6-6-6-6-6-6-6-6-6-6-6-6---6-6-6-6-6-6-6-6-4-4-4-4-4-4-4-4----
-----------------------------------------------------------------------

--------------------------------------------------------------------
--------------------------------------------------------------------
--------------------------------------------------------------------
--5-5-5-5-5-5-5-5-5-5-5-5-5-5-5-5---5-5-5-5-5-5-5-5-3-3-3-3-3-3-3-3-

--------------------------------------------------------------------
--------------------------------------------------------------------
--------------------------------------------------------------------
--5-5-5-5-5-5-5-5-5-5-5-5-5-5-5-5---5-5-5-5-5-5-5-5-3-3-3-3-3-3-3-3-

------------------------------------------------------------------------
------------------------------------------------------------------------
---------------------5--------------------------------------------------
--1-------------------------------------5-5-5-5-5-5-5-5-5-5-5-5-5-5-5-5-

--------------------------------------------------------------------
--------------------------------------------------------------------
--------------------------------------------------------------------
--5-5-5-5-5-5-5-5-3-3-3-3-3-3-3-3---5-5-5-5-5-5-5-5-5-5-5-5-5-5-5-5-

------------------------------------------------------------------------
------------------------------------------------------------------------
-------------------------------------------------------5----------------
--5-5-5-5-5-5-5-5-3-3-3-3-3-3-3-3---1-----------------------------------

--------------------------------------------------------------------
--------------------------------------------------------------------
--0-0-0------0-0-0--------0-0-0-------------------------------------
---------------------------------------3-3-3--3----5----------------]

-

Tuomas

[E------------------------------------------------------------------------
B------------------------------------------------------------------------
G-------------7---9------------------------------------------------------
D--9---9-10-----------9---9-10---7-----9---9-7---------------------------
A----7------7---7---7---7------7---7-----7-----7-10-7-9-7-9-10-7-9-7-6-7-
E------------------------------------------------------------------------

------------------------------------------------------------------------
------------------------------------------------------------------------
-------------7---9------------------------------------------------------
--9---9-10-----------9---9-10---7-----9---9-7---------------------------
----7------7---7---7---7------7---7-----7-----7-10-7-9-7-9-10-7-9-7-6-7-
------------------------------------------------------------------------

------------------------------------------------------------------------
------------------------------------------------------------------------
-------------7---9------------------------------------------------------
--9---9-10-----------9---9-10---7-----9---9-7---------------------------
----7------7---7---7---7------7---7-----7-----7-10-7-9-7-9-10-7-9-7-6-7-
------------------------------------------------------------------------

------------------------------------
------------------------------------
-------------7---9------------------
--9---9-10-----------9---9-10---7---
----7------7---7---7---7------7---7-
------------------------------------

-----------------------------------------------------
-----------------------------------------------------
-----------------------------------------------------
--9---9-7--------------------------------------------
----7-----7-10-7-9-7-9-10-7-9-7-6-7-7-9-10-7-9-7-6-7-
-----------------------------------------------------

------------------------------------------------------------------------
------------------------------------------------------------------------
-------------7---9------------------------------------------------------
--9---9-10-----------9---9-10---7-----9---9-7---------------------------
----7------7---7---7---7------7---7-----7-----7-10-7-9-7-9-10-7-9-7-6-7-
------------------------------------------------------------------------

------------------------------------------------------------------------
------------------------------------------------------------------------
-------------7---9------------------------------------------------------
--9---9-10-----------9---9-10---7-----9---9-7---------------------------
----7------7---7---7---7------7---7-----7-----7-10-7-9-7-9-10-7-9-7-6-7-
------------------------------------------------------------------------

------------------------------------------------------------------------
------------------------------------------------------------------------
-------------7---9------------------------------------------------------
--9---9-10-----------9---9-10---7-----9---9-7---------------------------
----7------7---7---7---7------7---7-----7-----7-10-7-9-7-9-10-7-9-7-6-7-
------------------------------------------------------------------------

--------------------------------------5---3---5----------
--------------------------------------5---5---7----------
-------------7---9---------------------------------------
--9---9-10-----------9---9-10---7------------------------
----7------7---7---7---7------7---7----------------------
---------------------------------------------------------

--3---3---2----------------------------------------------
--5---3---2----------------------------------------------
----------------------------------7---9------------------
-----------------------9---9-10-----------9---9-10---7---
-------------------------7------7---7---7---7------7---7-
---------------------------------------------------------

------------------------------------------------------------------------
------------------------------------------------------------------------
-------------------------------------------------7---9------------------
--9---9-7-----------------------------9---9-10-----------9---9-10---7---
----7-----7-10-7-9-7-9-10-7-9-7-6-7-----7------7---7---7---7------7---7-
------------------------------------------------------------------------

--5---3---5---13-------------------------------------------
--7---3---5---1--------------------------------------------
------------------------------------7---9------------------
-------------------------9---9-10-----------9---9-10---7---
---------------------------7------7---7---7---7------7---7-
-----------------------------------------------------------

------------------------------------------------------------------------
------------------------------------------------------------------------
-------------------------------------------------7---9------------------
--9---9-7-----------------------------9---9-10-----------9---9-10---7---
----7-----7-10-7-9-7-9-10-7-9-7-6-7-----7------7---7---7---7------7---7-
------------------------------------------------------------------------

--5---3---5------------3---3---2-------------------------------------
--5---5---7------------5---3---2-------------------------------------
---------------------------------------------------------------------
---------------------------------------------------------------------
---------------------------------------------------------------------
---------------------------------------------------------------------

-------------------------------------------------------
-------------------------------------------------------
---------------------------------4---6-----------------
-----------------------6---6-7-----------6---6-7---4---
-------------------------4-----4---4---4---4-----4---4-
-------------------------------------------------------

--------------------------------------------------------------------
--------------------------------------------------------------------
----------------------------------------------4---6-----------------
--6---6-4---------------------------6---6-7-----------6---6-7---4---
----4-----4-7-4-6-4-6-7-4-6-4-3-4-----4-----4---4---4---4-----4---4-
--------------------------------------------------------------------

--------------------------------------------------------------------
--------------------------------------------------------------------
----------------------------------------------4---6-----------------
--6---6-4---------------------------6---6-7-----------6---6-7---4---
----4-----4-7-4-6-4-6-7-4-6-4-3-4-----4-----4---4---4---4-----4---4-
--------------------------------------------------------------------

--------------------------------------------------------------------
--------------------------------------------------------------------
----------------------------------------------4---6-----------------
--6---6-4---------------------------6---6-7-----------6---6-7---4---
----4-----4-7-4-6-4-6-7-4-6-4-3-4-----4-----4---4---4---4-----4---4-
--------------------------------------------------------------------

--0---2---5------------5---0-----------------------------------------
--0---4---5------------5---0---4-------------------------------------
-------------------------------5-------------------------------------
---------------------------------------------------------------------
---------------------------------------------------------------------
---------------------------------------------------------------------

------------------------------------------------------------
------------------------------------------------------------
------------------------------------------------------------
------------------------------------------------------------
------------------------------------------------------------
------------------------------------------------------------

---------------------------------------
---------------------------------------
---------------------------------------
---------------------------------------
---------------------------------------
---------------------------------------

-----------------------------------------------------------------------
---------3---5---6---5---3---5------------------5----------------------
--0-0-0----0---0---0---0---0---0------5-5-5--7-----7--4----------------
---------------------------------------------------------5-------------
-----------------------------------------------------------------------
-----------------------------------------------------------------------

-----------------------------------------------------------------------
---------------3---5---6---5---3---5------------------5----------------
--------0-0-0----0---0---0---0---0---0------5-5-5--7-----7--4----------
---------------------------------------------------------------5-------
-----------------------------------------------------------------------
-----------------------------------------------------------------------

------------------------------------------------------------
------------------------------------------------------------
------------------------------------------------------------
------------------------------------------------------------
------------------------------------------------------------
------------------------------------------------------------

------------------------------------------------------------
------------------------------------------------------------
------------------------------------------------------------
------------------------------------------------------------
------------------------------------------------------------
------------------------------------------------------------

------------------------------------------------------------
------------------------------------------------------------
------------------------------------------------------------
------------------------------------------------------------
------------------------------------------------------------
------------------------------------------------------------

---------------------------------------------
---------------------------------------------
---------------------------------------------
---------------------------------------------
---------------------------------------------
---------------------------------------------

--12--12-14-15--14-12-17--17-19-15-14-10--
------------------------------------------
------------------------------------------
------------------------------------------
------------------------------------------
------------------------------------------

--12--12-14-15-15-14-12-14--10--12----
--------------------------------------
--------------------------------------
--------------------------------------
--------------------------------------
--------------------------------------

--12--12-14-15--14-12-17--17-19-15-14-10--
------------------------------------------
------------------------------------------
------------------------------------------
------------------------------------------
------------------------------------------

--12--12-14-15-15-14-12-14--10--12------2--2-4-5--4-2-7--7-9-5-4-0--
--------------------------------------------------------------------
--------------------------------------------------------------------
--------------------------------------------------------------------
--------------------------------------------------------------------
--------------------------------------------------------------------

--2--2-4-5-5-4-2-4--0--2------2--2-4-5--4-2-7--7-9-5-4-0--
----------------------------------------------------------
----------------------------------------------------------
----------------------------------------------------------
----------------------------------------------------------
----------------------------------------------------------

--2--2-4-5-5-4-2-4--0--2------2--2-4-5--4-2-7--7-9-5-4-0--
----------------------------------------------------------
----------------------------------------------------------
----------------------------------------------------------
----------------------------------------------------------
----------------------------------------------------------

--2--2-4-5-5-4-2-4--0--2------2--2-4-5--4-2-7--7-9-5-4-0--
----------------------------------------------------------
----------------------------------------------------------
----------------------------------------------------------
----------------------------------------------------------
----------------------------------------------------------

--2--2-4-5-5-4-2-4--0--2----------------------------------------
----------------------------------------------------------------
----------------------------------------------------------------
----------------------------------------------------------------
----------------------------------------------------------------
----------------------------------------------------------------

------------------------------------------------------------
------------------------------------------------------------
------------------------------------------------------------
------------------------------------------------------------
------------------------------------------------------------
------------------------------------------------------------

----------------------------------------------------------
Добавлено: 28.11.2013
Другие материалы по этой песне:

Страница создана 01.03.2012
http://primanota.ru/nightwish/fantasmic-chords.htm
Привет, Гость.
Предлагаем пройти революционный курс по гитаре.
Подарок от PrimaNota.Ru, забирай!