PrimaNota.ru - самый крупный в мире бесплатный архив песенных текстов, аккордов, табулатур и нот


Nightwish - End Of All Hope - аккорды и текст, таба, бас-таба, видео

Регистрация Запомнить меня
Войти через:  Facebook Google Twitter Vk Yandex Mail.ru

Nightwish - End Of All Hope - аккорды и текст, таба, бас-таба, видео

Печатать
Просмотров: 364
Авторы музыки: Tuomas Holopainen
Авторы текста: Tuomas Holopainen
End Of All Hope
Nightwish
Guitar 1.
 
[E--------------------------------------------------
B--------------------------------------------------
G--------------------------------------------------
D--------------------------------------------------
A--5--5--5--5--------5--5--5----5--------3----3----
E--3--3--3--3--------3--3--3----3--------1----1----

--------------------------------------------------
--------------------------------------------------
----------------------------------------2----2----
----------------------------------------0----0----
--5--5--5--5--------5--5--5----5------------------
--3--3--3--3--------3--3--3----3------------------

--------------------------------------------------
--------------------------------------------------
--------------------------------------------------
--------------------------------------------------
--3--3--3--3--------3--3--3----3--------3----3----
--1--1--1--1--------1--1--1----1--------1----1----

--------------------------------------------------
--------------------------------------------------
----------------------------------------3---------
--5--5--5--5--------5--5--5----5--------1---------
--3--3--3--3--------3--3--3----3-------------3----
---------------------------------------------1----

--------------------------------------------------------------------
--------------------------------------------------------------------
--------------------------------------------------------------------
----------------------------------------------------------5----5----
--2-------------------------------------------------------3----3----
--0--0--0--0--0--0--0--0--0--0--0--0----0--0--0--0--0--0------------

--------------------------------------------------------------------
--------------------------------------------------------------------
--2-------------------------------------------------------2----2----
--0--0--0--0--0--0--0--0--0--0--0--0----0--0--0--0--0--0--2----2----
----------------------------------------------------------0----0----
--------------------------------------------------------------------

--------------------------------------------------------------------
--------------------------------------------------------------------
--------------------------------------------------------------------
----------------------------------------------------------5----5----
--2-------------------------------------------------------3----3----
--0--0--0--0--0--0--0--0--0--0--0--0----0--0--0--0--0--0------------

----------------------------------------------------------------------------
----------------------------------------------------------------------------
--2-------------------------------------------------------------------------
--0--0--0--0--0--0--0--0--0--0--0--0----0--0--0--0--0--0--------------------
----------------------------------------------------------2-----------------
----------------------------------------------------------0--0--0--0--0--0--

----------------------------------------------------------------------------
----------------------------------------------------------------------------
----------------------------------------------------------------------------
-------------------------------------------------------------------3--------
--5--------5--------------0--1--0-------5--------5--------1--0--1-----1--0--
--3--3--3--3--3--3--1--3-----------1----3--3--3--3--3--3--------------------

-----------------------------------------------------------------------
-----------------------------------------------------------------------
-----------------------------------------------------------------------
-----------------------------------------------------------------------
--5--------5--------------0--1--0-------3----3--3--1--0--0----0-----0--
--3--3--3--3--3--3--1--3-----------1-----------------------------3-----

----------------------------------------------------------------------------
----------------------------------------------------------------------------
----------------------------------------------------------------------------
-------------------------------------------------------------------3--------
--5--------5--------------0--1--0-------5--------5--------1--0--1-----1--0--
--3--3--3--3--3--3--1--3-----------1----3--3--3--3--3--3--------------------

-----------------------------------------------------------------------
-----------------------------------------------------------------------
-----------------------------------------------------------------------
-----------------------------------------------------------------------
--5--------5--------------0--1--0-------3----3--3--1--0--0----0-----0--
--3--3--3--3--3--3--1--3-----------1-----------------------------3-----

-----------------------------------------------------------------------
-----------------------------------------------------------------------
-----------------------------------------------------------------------
-----------------------------------------------------------------------
--1--0-----0------------------------5----------------------------------
--------3-----3--1--3--3--3--3------3----------------------------------

--------------------------------------------------------------------------
--------------------------------------------------------------------------
--3-----------------------------------------------------------------------
--1------------------------------------3----------------------------------
---------------------------------------1----------------------------------
--------------------------------------------------------------------------

-------------------------------------------------------------------
-------------------------------------------------------------------
--2----------------------------------------------------------------
--0----------------------------------------------------------------
---------------------------------------5--5--5--5----5--5--5--5----
---------------------------------------3--3--3--3----3--3--3--3----

----------------------------------------------------------------
----------------------------------------------------------------
----------------------------------------------------------------
----------------------------------------------------------------
--5--5--5--5----3-----0--1--0-------5--5--5--5----5--5--5--5----
--3--3--3--3----1--3-----------1----3--3--3--3----3--3--3--3----

----------------------------------------------------------------
----------------------------------------------------------------
----------------------------------------------------------------
----------------------------------------------------------------
--5--5--5--5----5--0--1--4--1--0----5--5--5--5----5--5--5--5----
--3--3--3--3----3-------------------3--3--3--3----3--3--3--3----

----------------------------------------------------------------
----------------------------------------------------------------
----------------------------------------------------------------
---------------------------3------------3------3----------------
--5--5--5--5----3----------1------------0------0----------------
--3--3--3--3----1-----------------------------------------------

-----------------------------------------------------------------
-----------------------------------------------------------------
-----------------------------------------------------------------
-----------------------------------------------------------------
--5----------------5------------------5----------------3----3----
--3----3--3--3--3--3----3--3--3--3----3----3--3--3--3--1----1----

-----------------------------------------------------------------
-----------------------------------------------------------------
-------------------------------------------------------2----2----
-------------------------------------------------------0----0----
--5----------------5------------------5--------------------------
--3----3--3--3--3--3----3--3--3--3----3----3--3--3--3------------

-----------------------------------------------------------------
-----------------------------------------------------------------
-----------------------------------------------------------------
-----------------------------------------------------------------
--3----------------3------------------3----------------3----3----
--1----1--1--1--1--1----1--1--1--1----1----1--1--1--1--1----1----

-----------------------------------------------------------------
-----------------------------------------------------------------
-------------------------------------------------------3---------
--5----------------5------------------5----------------1---------
--3----3--3--3--3--3----3--3--3--3----3----3--3--3--3-------3----
------------------------------------------------------------1----

----------------------------------------------------------------------------
----------------------------------------------------------------------------
----------------------------------------------------------------------------
-------------------------------------------------------------------3--------
--5--------5--------------0--1--0-------5--------5--------1--0--1-----1--0--
--3--3--3--3--3--3--1--3-----------1----3--3--3--3--3--3--------------------

-----------------------------------------------------------------------
-----------------------------------------------------------------------
-----------------------------------------------------------------------
-----------------------------------------------------------------------
--5--------5--------------0--1--0-------3----3--3--1--0--0----0-----0--
--3--3--3--3--3--3--1--3-----------1-----------------------------3-----

--------------------------------------------------
--------------------------------------------------
--------------------------------------------------
--------------------------------------------------
--1--0-----0----------5--5--5--5----5--5--5--5----
--------3-----3--1----3--3--3--3----3--3--3--3----

----------------------------------------------------------------
----------------------------------------------------------------
----------------------------------------------------------------
----------------------------------------------------------------
--5--5--5--5----3-----0--1--0-------5--5--5--5----5--5--5--5----
--3--3--3--3----1--3-----------1----3--3--3--3----3--3--3--3----

----------------------------------------------------------------
----------------------------------------------------------------
----------------------------------------------------------------
----------------------------------------------------------------
--5--5--5--5----5--0--1--4--1--0----5--5--5--5----5--5--5--5----
--3--3--3--3----3-------------------3--3--3--3----3--3--3--3----

----------------------------------------------------------------
----------------------------------------------------------------
----------------------------------------------------------------
---------------------------3------------3------3----------------
--5--5--5--5----3----------1------------0------0----------------
--3--3--3--3----1-----------------------------------------------

-----------------------------------------------------------------
-----------------------------------------------------------------
-----------------------------------------------------------------
-----------------------------------------------------------------
--5----------------5------------------5----------------3----3----
--3----3--3--3--3--3----3--3--3--3----3----3--3--3--3--1----1----

-----------------------------------------------------------------
-----------------------------------------------------------------
-------------------------------------------------------2----2----
-------------------------------------------------------0----0----
--5----------------5------------------5--------------------------
--3----3--3--3--3--3----3--3--3--3----3----3--3--3--3------------

-----------------------------------------------------------------
-----------------------------------------------------------------
-----------------------------------------------------------------
-----------------------------------------------------------------
--3----------------3------------------3----------------3----3----
--1----1--1--1--1--1----1--1--1--1----1----1--1--1--1--1----1----

-----------------------------------------------------------------
-----------------------------------------------------------------
-------------------------------------------------------3---------
--5----------------5------------------5----------------1---------
--3----3--3--3--3--3----3--3--3--3----3----3--3--3--3-------3----
------------------------------------------------------------1----

--------------------------------------------------------------------
--------------------------------------------------------------------
--------------------------------------------------------------------
----------------------------------------------------------5----5----
--2-------------------------------------------------------3----3----
--0--0--0--0--0--0--0--0--0--0--0--0----0--0--0--0--0--0------------

--------------------------------------------------------------------
--------------------------------------------------------------------
--2-----------------------------------------------------------------
--0--0--0--0--0--0--0--0--0--0--0--0----0--0--0--0--0--0--2----2----
----------------------------------------------------------0----0----
--------------------------------------------------------------------

--------------------------------------------------------------------
--------------------------------------------------------------------
--------------------------------------------------------------------
----------------------------------------------------------5----5----
--2-------------------------------------------------------3----3----
--0--0--0--0--0--0--0--0--0--0--0--0----0--0--0--0--0--0------------

----------------------------------------------------------------------------
----------------------------------------------------------------------------
--2-------------------------------------------------------------------------
--0--0--0--0--0--0--0--0--0--0--0--0----0--0--0--0--0--0--------------------
----------------------------------------------------------2-----------------
----------------------------------------------------------0--0--0--0--0--0--

---------------------------------------------------------------------
---------------------------------------------------------------------
---------------------------------------------------------------------
---------------------------------------------------------------------
--2----2--2--2----2----2--2--2------2----2--2--2----2----2--2--2--2--
--0----0--0--0----0----0--0--0------0----0--0--0----0----0--0--0--0--

------------------------------------------------------------------
------------------------------------------------------------------
------------------------------------------------------------------
------------------------------------------------------------------
--2----2--2--2----2----2--2--2------2----2----2----2----4----5----
--0----0--0--0----0----0--0--0------0----0----0----0----2----3----

---------------------------------------------------------------------
---------------------------------------------------------------------
---------------------------------------------------------------------
---------------------------------------------------------------------
--2----2--2--2----2----2--2--2------2----2--2--2----2----2--2--2--2--
--0----0--0--0----0----0--0--0------0----0--0--0----0----0--0--0--0--

-------------------------------------------------------------------
-------------------------------------------------------------------
-------------------------------------------------------------------
-------------------------------------------------------------------
--2----2--2--2----2----2--2--2------2----2--2--2----2----4----5----
--0----0--0--0----0----0--0--0------0----0--0--0----0----2----3----

----------------------------------------------------------------------
----------------------------------------------------------------------
----------------------------------------------------------------------
----------------------------------------------------------------------
--2----2--2--2----2----2--2--2--2----2----2--2--2----2----2--2--2--2--
--0----0--0--0----0----0--0--0--0----0----0--0--0----0----0--0--0--0--

-------------------------------------------------------------------
-------------------------------------------------------------------
-------------------------------------------------------------------
-------------------------------------------------------------------
--2----2--2--2----2----2--2--2--2----2----2----2----2----4----5----
--0----0--0--0----0----0--0--0--0----0----0----0----0----2----3----

------------------------------------------------------------
------------------------------------------------------------
--2--2--2--2----2--2--2--2------2--2--2--2----2--2--2--2----
--0--0--0--0----0--0--0--0------0--0--0--0----0--0--0--0----
------------------------------------------------------------
------------------------------------------------------------

----------------------------------------------------
----------------------------------------------------
--2--2--2--2----2--2--2--2------2-------------------
--0--0--0--0----0--0--0--0------0----2---------5----
-------------------------------------0----3----3----
------------------------------------------1---------

------------------------------------------------------------
------------------------------------------------------------
--2--2--2--2----2--2--2--2------2--2--2--2----2--2--2--2----
--0--0--0--0----0--0--0--0------0--0--0--0----0--0--0--0----
------------------------------------------------------------
------------------------------------------------------------

----------------------------------------------------
----------------------------------------------------
--2--2--2--2----2--2--2--2------2-------------------
--0--0--0--0----0--0--0--0------0----2---------5----
-------------------------------------0----3----3----
------------------------------------------1---------

---------------------------------------------------------------------
---------------------------------------------------------------------
---------------------------------------------------------------------
---------------------------------------------------------------------
--2----2--2--2----2----2--2--2------2----2--2--2----2----2--2--2--2--
--0----0--0--0----0----0--0--0------0----0--0--0----0----0--0--0--0--

-------------------------------------------------------------------
-------------------------------------------------------------------
-------------------------------------------------------------------
-------------------------------------------------------------------
--2----2--2--2----2----2--2--2------2----2--2--2----2----4----5----
--0----0--0--0----0----0--0--0------0----0--0--0----0----2----3----

---------------------------------------------------------------------
---------------------------------------------------------------------
---------------------------------------------------------------------
---------------------------------------------------------------------
--2----2--2--2----2----2--2--2------2----2--2--2----2----2--2--2--2--
--0----0--0--0----0----0--0--0------0----0--0--0----0----0--0--0--0--

----------------------------------------------------------------
----------------------------------------------------------------
----------------------------------------------------------------
----------------------------------------------------------------
--2----2----2----2----2----2------2----2----2----2----4----5----
--0----0----0----0----0----0------0----0----0----0----2----3----

------------------------------------------------------------
------------------------------------------------------------
--2--2--2--2----2--2--2--2------2--2--2--2----2--2--2--2----
--0--0--0--0----0--0--0--0------0--0--0--0----0--0--0--0----
------------------------------------------------------------
------------------------------------------------------------

----------------------------------------------------
----------------------------------------------------
--2--2--2--2----2--2--2--2------2-------------------
--0--0--0--0----0--0--0--0------0----2---------5----
-------------------------------------0----3----3----
------------------------------------------1---------

------------------------------------------------------------
------------------------------------------------------------
--2--2--2--2----2--2--2--2------2--2--2--2----2--2--2--2----
--0--0--0--0----0--0--0--0------0--0--0--0----0--0--0--0----
------------------------------------------------------------
------------------------------------------------------------

-----------------------------------------------------------------------
-----------------------------------------------------------------------
--2--2--2--2----2--2--2--2------2---------------------2----------------
--0--0--0--0----0--0--0--0------0----2---------5------0----------------
-------------------------------------0----3----3-----------------------
------------------------------------------1----------------------------

----------------------------------------------------------------------------
----------------------------------------------------------------------------
----------------------------------------------------------------------------
---------------------5------------------2------------------3----------------
--5------------------3------------------0------------------1----------------
--3-------------------------------------------------------------------------

-------------------------------------------------------------------------
-------------------------------------------------------------------------
-------------------------------------------------------------------------
--5----------------------------------------------------------------------
--3------------------------------------5----------------5----------------
---------------------------------------3----3--3--3--3--3----3--3--3--3--

-----------------------------------------------------------------
-----------------------------------------------------------------
-----------------------------------------------------------------
-----------------------------------------------------------------
--5----------------3----3------5----------------5----------------
--3----3--3--3--3--1----1------3----3--3--3--3--3----3--3--3--3--

-----------------------------------------------------------------
-----------------------------------------------------------------
-------------------2----2----------------------------------------
-------------------0----0----------------------------------------
--5----------------------------3----------------3----------------
--3----3--3--3--3--------------1----1--1--1--1--1----1--1--1--1--

-----------------------------------------------------------------
-----------------------------------------------------------------
-----------------------------------------------------------------
-------------------------------5----------------5----------------
--3----------------3----3------3----3--3--3--3--3----3--3--3--3--
--1----1--1--1--1--1----1----------------------------------------

-------------------------------------------------------------------
-------------------------------------------------------------------
-------------------3-----------------------------------------------
--5----------------1--------------------------------------5--------
--3----3--3--3--3-------3------2--------------------------3--------
------------------------1------0-----------------------------------

----------------------------------------------------------------------------
----------------------------------------------------------------------------
--2-------------------------------------------------------------------------
--0--------------------------2-------------------------------------5--------
-----------------------------0----------2--------------------------3--------
----------------------------------------0-----------------------------------

--------------------------------------------------------------------------
--------------------------------------------------------------------------
--2-----------------------------------------------------------------------
--0-----------------------------------------------------------------------
-----------------------------2----------5----------------5----------------
-----------------------------0----------3----3--3--3--3--3----3--3--3--3--

-----------------------------------------------------------------
-----------------------------------------------------------------
-----------------------------------------------------------------
-----------------------------------------------------------------
--5----------------3----3------5----------------5----------------
--3----3--3--3--3--1----1------3----3--3--3--3--3----3--3--3--3--

-----------------------------------------------------------------
-----------------------------------------------------------------
-------------------2----2----------------------------------------
-------------------0----0----------------------------------------
--5----------------------------3----------------3----------------
--3----3--3--3--3--------------1----1--1--1--1--1----1--1--1--1--

-----------------------------------------------------------------
-----------------------------------------------------------------
-----------------------------------------------------------------
-------------------------------5----------------5----------------
--3----------------3----3------3----3--3--3--3--3----3--3--3--3--
--1----1--1--1--1--1----1----------------------------------------

-----------------------------------------------------------------
-----------------------------------------------------------------
-------------------3---------------------------------------------
--5----------------1---------------------------------------------
--3----3--3--3--3-------3------5----------------5----------------
------------------------1------3----3--3--3--3--3----3--3--3--3--

-----------------------------------------------------------------
-----------------------------------------------------------------
-----------------------------------------------------------------
-----------------------------------------------------------------
--5----------------3----3------5----------------5----------------
--3----3--3--3--3--1----1------3----3--3--3--3--3----3--3--3--3--

-------------------------------------------------------------------
-------------------------------------------------------------------
-------------------2----2------3-----------------------------------
-------------------0----0------1-----------------------------------
--5-----------------------------------------------3----------------
--3----3--3--3--3---------------------------------1----------------

------------------------------------------------------------------
------------------------------------------------------------------
------------------------------------------------------------------
------------------------------------------------------------------
--5------------------5--5--5--5--5--5--5--------------------------
--3------------------3--3--3--3--3--3--3--------------------------]

-

Text:		End Of All Hope

It is the end of all hope
To lose the child, the faith
To end all the innocence
To be someone like me
This is the birth of all hope
To have what I once had
This life unforgiven
It will end with a birth

No will to wake for this morn
To see another black rose born
Deathbed is slowly covered with snow

Angels, they fell first but I'm still here
Alone as they are drawing near
In heaven my masterpiece will finally be sung

Wounded is the deer that leaps highest
And my wound it cuts so deep
Turn off the light and let me pull the plug

Mandylion without a face
Deathwish without a prayer
End of hope
End of love
End of time
The rest is silence

-

Перевод:	Конец Всех Надежд

Это конец всех надежд
Потерять ребенка, веру
Покончить с невинностью
Быть таким, как я.
Это рождение всех надежд
Иметь то, что когда-то имел я.
Эта непрощенная жизнь
Она закончится рождением.
Ни одну волю не разбудить в это утро,
Чтобы увидеть рождение еще одной черной розы.
И могилу медленно покрывают снегом.
Ранят того оленя, что прыгает выше всех,
И моя рана так глубока,
Выключи свет и дай мне вытащить пулю
Плащаница без лица
Предсмертное желание без молитвы.
Конец надежды
Конец любви
Конец времени
Остальное - тишина.

-

Guitar 2.

[E------------------------------------------------------------------------
B------------------------------------------------------------------------
G------------------------------------------------------------------------
D------------------------------------------------------------------------
A------------------------------------------------------------------------
E------------------------------------------------------------------------

------------------------------------------------------------------------
------------------------------------------------------------------------
------------------------------------------------------------------------
------------------------------------------------------------------------
------------------------------------------------------------------------
------------------------------------------------------------------------

------------------------------------------------------------------------
------------------------------------------------------------------------
------------------------------------------------------------------------
------------------------------------------------------------------------
------------------------------------------------------------------------
------------------------------------------------------------------------

------------------------------------------------------------------------
------------------------------------------------------------------------
------------------------------------------------------------------------
------------------------------------------------------------------------
------------------------------------------------------------------------
------------------------------------------------------------------------

----------------------------------------------------------
----------------------------------------------------------
------------------------------------------------10--------
-----------------7--8--7---------------8--7--8------8--7--
----------8--10-----------8-------------------------------
----------------------------------------------------------

----------------------------------------------------------------
----------------------------------------------------------------
-------------------------------8----8--8--7--5--5---------------
-----------------7--8--7-----------------------------10--8--10--
----------8--10-----------8-------------------------------------
----------------------------------------------------------------

----------------------------------------------------------
----------------------------------------------------------
------------------------------------------------10--------
-----------------7--8--7---------------8--7--8------8--7--
----------8--10-----------8-------------------------------
----------------------------------------------------------

----------------------------------------------------------------
----------------------------------------------------------------
-------------------------------8----8--8--7--5--5---------------
-----------------7--8--7-----------------------------10--8--10--
----------8--10-----------8-------------------------------------
----------------------------------------------------------------

----------------------------------------------------------------------
----------------------------------------------------------------------
--7--5-----5----------------------------------------------------------
--------8-----8--7--5--5--5--5----------------------------------------
----------------------------------------------------------------------
----------------------------------------------------------------------

------------------------------------------------------------------------
------------------------------------------------------------------------
------------------------------------------------------------------------
------------------------------------------------------------------------
------------------------------------------------------------------------
------------------------------------------------------------------------

------------------------------------------------------
------------------------------------------------------
------------------------------------------------------
------------------------------------------------------
------------------------------------------------------
------------------------------------------------------

-----------------------------------------------
-----------------------------------------------
-----------------------------------------------
-----------------7--8--7-----------------------
----------8--10-----------8--------------------
-----------------------------------------------

--------------------------------------------------------------------
--------------------------------------------------------------------
--------------------------------------------------------------------
------------------8--11--8------------------------------------------
----------10--12------------12--------------------------------------
--------------------------------------------------------------------

------------------------------------------------------------------------
------------------------------------------------------------------------
------------------------------------------------------------------------
------------------------------------------------------------------------
------------------------------------------------------------------------
------------------------------------------------------------------------

------------------------------------------------------------------------
------------------------------------------------------------------------
------------------------------------------------------------------------
------------------------------------------------------------------------
------------------------------------------------------------------------
------------------------------------------------------------------------

-----------------------------------------------------------------
-----------------------------------------------------------------
-----------------------------------------------------------------
-----------------------------------------------------7--8--7-----
----------------------------------------------8--10-----------8--
-----------------------------------------------------------------

----------------------------------------------------------
----------------------------------------------------------
-------------------10-------------------------------------
----------8--7--8------8--7-------------------7--8--7-----
---------------------------------------8--10-----------8--
----------------------------------------------------------

-------------------------------------------------------------------------
-------------------------------------------------------------------------
--8----8--8--7--5--5-----------------7--5-----5--------------------------
------------------------10--8--10----------8-----8--7--------------------
-------------------------------------------------------------------------
-------------------------------------------------------------------------

-----------------------------------------------
-----------------------------------------------
-----------------------------------------------
-----------------7--8--7-----------------------
----------8--10-----------8--------------------
-----------------------------------------------

--------------------------------------------------------------------
--------------------------------------------------------------------
--------------------------------------------------------------------
------------------8--11--8------------------------------------------
----------10--12------------12--------------------------------------
--------------------------------------------------------------------

------------------------------------------------------------------------
------------------------------------------------------------------------
------------------------------------------------------------------------
------------------------------------------------------------------------
------------------------------------------------------------------------
------------------------------------------------------------------------

------------------------------------------------------------------------
------------------------------------------------------------------------
------------------------------------------------------------------------
------------------------------------------------------------------------
------------------------------------------------------------------------
------------------------------------------------------------------------

------------------------------------------------------------------------
------------------------------------------------------------------------
------------------------------------------------------------------------
------------------------------------------------------------------------
------------------------------------------------------------------------
------------------------------------------------------------------------

------------------------------------------------------------------------
------------------------------------------------------------------------
------------------------------------------------------------------------
------------------------------------------------------------------------
------------------------------------------------------------------------
------------------------------------------------------------------------

------------------------------------------------------------------------
------------------------------------------------------------------------
------------------------------------------------------------------------
------------------------------------------------------------------------
------------------------------------------------------------------------
------------------------------------------------------------------------

------------------------------------------------------------------------
------------------------------------------------------------------------
------------------------------------------------------------------------
------------------------------------------------------------------------
------------------------------------------------------------------------
------------------------------------------------------------------------

------------------------------------------------------------------------
------------------------------------------------------------------------
------------------------------------------------------------------------
------------------------------------------------------------------------
------------------------------------------------------------------------
------------------------------------------------------------------------

------------------------------------------------------------------------
------------------------------------------------------------------------
------------------------------------------------------------------------
------------------------------------------------------------------------
------------------------------------------------------------------------
------------------------------------------------------------------------

------------------------------------------------------------------------
------------------------------------------------------------------------
------------------------------------------------------------------------
------------------------------------------------------------------------
------------------------------------------------------------------------
------------------------------------------------------------------------

------------------------------------------------------------------------
------------------------------------------------------------------------
------------------------------------------------------------------------
------------------------------------------------------------------------
------------------------------------------------------------------------
------------------------------------------------------------------------

------------------------------------------------------------------------
------------------------------------------------------------------------
------------------------------------------------------------------------
------------------------------------------------------------------------
------------------------------------------------------------------------
------------------------------------------------------------------------

------------------------------------------------------------------------
------------------------------------------------------------------------
------------------------------------------------------------------------
------------------------------------------------------------------------
------------------------------------------------------------------------
------------------------------------------------------------------------

------------------------------------------------------------------------
------------------------------------------------------------------------
------------------------------------------------------------------------
------------------------------------------------------------------------
------------------------------------------------------------------------
------------------------------------------------------------------------

--------------------------------------5-------------------------------------
-----------------------------------------6-----10-----10-----5--6--5--6--8--
--------------------------------------------7------7------7-----------------
----------------------------------------------------------------------------
----------------------------------------------------------------------------
----------------------------------------------------------------------------

----------------------13--12----13--
--10----8----10--8------------------
------------------------------------
------------------------------------
------------------------------------
------------------------------------

--12--13--15----------12--------------------------
--------------13--15----------13------------------
--------------------------14------14--13--12--10--
--------------------------------------------------
--------------------------------------------------
--------------------------------------------------

--13--------15--------13----------12------10------------8----10-
--------13--------15--15----13----13------11------------10---11-
----------------------------14----------------------------------
----------------------------------------------------------------
----------------------------------------------------------------
----------------------------------------------------------------

--8----------------------------------------------------------------------
--8----------------------------------------------------------------------
-------------------------------------------------------------------------
-------------------------------------------------------------------------
-------------------------------------------------------------------------
-------------------------------------------------------------------------

------------------------------------------------------------------------
------------------------------------------------------------------------
------------------------------------------------------------------------
------------------------------------------------------------------------
------------------------------------------------------------------------
------------------------------------------------------------------------

------------------------------------------------------------------------
------------------------------------------------------------------------
------------------------------------------------------------------------
------------------------------------------------------------------------
------------------------------------------------------------------------
------------------------------------------------------------------------

------------------------------------------------------------------------
------------------------------------------------------------------------
------------------------------------------------------------------------
------------------------------------------------------------------------
------------------------------------------------------------------------
------------------------------------------------------------------------

------------------------------------------------------------------------
------------------------------------------------------------------------
------------------------------------------------------------------------
------------------------------------------------------------------------
------------------------------------------------------------------------
------------------------------------------------------------------------

------------------------------------------------------------------------
------------------------------------------------------------------------
------------------------------------------------------------------------
------------------------------------------------------------------------
------------------------------------------------------------------------
------------------------------------------------------------------------

------------------------------------------------------------------------
------------------------------------------------------------------------
------------------------------------------------------------------------
------------------------------------------------------------------------
------------------------------------------------------------------------
------------------------------------------------------------------------

------------------------------------------------------------------------
------------------------------------------------------------------------
------------------------------------------------------------------------
------------------------------------------------------------------------
------------------------------------------------------------------------
------------------------------------------------------------------------

------------------------------------------------------
------------------------------------------------------
------------------------------------------------------
------------------------------------------------------
------------------------------------------------------
------------------------------------------------------]

-

Bass

[G--------------------------------------------------
D--------------------------------------------------
A--------------------------------------------------
E--3--3--3--3--------3--3--3----3--------1----1----

--------------------------------------------------
----------------------------------------0----0----
--------------------------------------------------
--3--3--3--3--------3--3--3----3------------------

--------------------------------------------------
--------------------------------------------------
--------------------------------------------------
--1--1--1--1--------1--1--1----1--------1----1----

--------------------------------------------------
----------------------------------------1---------
--3--3--3--3--------3--3--3----3------------------
---------------------------------------------1----

----------------------------------------------------------------------------
----------------------------------------------------------------------------
----------------------------------------------------------3--3--3--3--3--3--
--0--0--0--0--0--0--0--0--0--0--0--0----0--0--0--0--0--0--------------------

----------------------------------------------------------------------------
--0--0--0--0--0--0--0--0--0--0--0--0----0--0--0--0--0--0--------------------
----------------------------------------------------------0--0--0--0--0--0--
----------------------------------------------------------------------------

----------------------------------------------------------------------------
----------------------------------------------------------------------------
----------------------------------------------------------3--3--3--3--3--3--
--0--0--0--0--0--0--0--0--0--0--0--0----0--0--0--0--0--0--------------------

----------------------------------------------------------------------------
--0--0--0--0--0--0--0--0--0--0--0--0----0--0--0--0--0--0--------------------
----------------------------------------------------------0--0--0--0--0--0--
----------------------------------------------------------------------------

--------------------------------------------------------------------
--------------------------------------------------------------------
--------------------------------------------------------------------
--3----------------------------------------3--3--3--3--3------------

-----------------------------------------------------------------------
--1--1--1--1----1------------------------------------------------------
-----------------------------------------------------------------------
-------------------1----1------3--3--3--3------------------------------

--------------------------------------------------------------------
-------------------------------------1----1--1--1--1----------------
--------------------------------------------------------------------
------3--3--3--3--3----3--3--3--3---------------------1--1--1--1----

-------------------------------------------------------------------
-------------------------------------------------------------------
-------------------------------------------------------------------
------1----3--3--3--3------3--3--3--3------------------------------

------------------------------------------------------------------
--1--1--1--1------------------------------------------------------
--------------------------------------------1--1--1--1------------
------------------------------------------------------------------

------------------------------------------------------------------------
--------------------0--0--0--0--------------0--0--0--0----0--0--0--0----
------------------------------------------------------------------------
------------------------------------------------------------------------

------------------------------------------------------------
------------------------------------------------------------
------------------------------------------------------------
--3--3--3--3----3--3--3--3------3--3--3--3----1--1--1--1----

------------------------------------------------------------
------------------------------------------------------------
----------------------------------------------4--4--4--4----
--3--3--3--3----3--3--3--3------3--3--3--3------------------

------------------------------------------------------------
------------------------------------------------------------
------------------------------------------------------------
--3--3--3--3----3--3--3--3------3--3--3--3----1--1--1--1----

----------------------------------------------------------------------------
----------------------------------------------------------------------------
--1--1--1--1--1--1--1--1--1--1--1--1----0--0--0--0--0--0--0-----0--1--0-----
-------------------------------------------------------------3-----------1--

--------------------------------------------------------------------
--------------------------------------------------------------------
--------------------------------------------------------------------
--3--3--3--3--3--3--3--3--3--3--3--3----3--3--3--3--3--3--1----1----

--------------------------------------------------------------------
----------------------------------------------------------0----0----
--------------------------------------------------------------------
--3--3--3--3--3--3--3--3--3--3--3--3----3--3--3--3--3--3------------

--------------------------------------------------------------------
--------------------------------------------------------------------
--------------------------------------------------------------------
--1--1--1--1--1--1--1--1--1--1--1--1----1--1--1--1--1--1--1----1----

--------------------------------------------------------------------
----------------------------------------------------------1---------
--3--3--3--3--3--3--3--3--3--3--3--3----3--3--3--3--3--3------------
---------------------------------------------------------------1----

--------------------------------------------------------------------
--------------------------------------------------------------------
--------------------------------------------------------------------
--3----------------------------------------3--3--3--3--3------------

----------------------------------------------------------------------
--1--1--1--1----1-----------------------------------------------------
----------------------------------------------------------------------
-------------------1----1----------1------3--3--3--3----3--3--3--3----

------------------------------------------------------------
------------------------------------------------------------
------------------------------------------------------------
--3--3--3--3----1--1--1--1------3--3--3--3----3--3--3--3----

------------------------------------------------------------
------------------------------------------------------------
----------------4--4--4--4----------------------------------
--3--3--3--3--------------------3--3--3--3----3--3--3--3----

--------------------------------------------------------------------
--------------------------------------------------------------------
--------------------------------1--1--1--1--1--1--1--1--1--1--1--1--
--3--3--3--3----1--1--1--1------------------------------------------

----------------------------------------------------------------------------
----------------------------------------------------------------------------
--0--0--0--0--0--0--0-----0--1--0-------------------------------------------
-----------------------3-----------1----3--3--3--3--3--3--3--3--3--3--3--3--

--------------------------------------------------------------------
--------------------------------------------------------------------
--------------------------------------------------------------------
--3--3--3--3--3--3--1----1------3--3--3--3--3--3--3--3--3--3--3--3--

--------------------------------------------------------------------
--------------------0----0------------------------------------------
--------------------------------------------------------------------
--3--3--3--3--3--3--------------1--1--1--1--1--1--1--1--1--1--1--1--

--------------------------------------------------------------------
--------------------------------------------------------------------
--------------------------------3--3--3--3--3--3--3--3--3--3--3--3--
--1--1--1--1--1--1--1----1------------------------------------------

--------------------------------------------------------------------
--------------------1-----------------------------------------------
--3--3--3--3--3--3--------------------------------------------------
-------------------------1------0--0--0--0--0--0--0--0--0--0--0--0--

----------------------------------------------------------------------------
----------------------------------------0--0--0--0--0--0--0--0--0--0--0--0--
--------------------3--3--3--3--3--3----------------------------------------
--0--0--0--0--0--0----------------------------------------------------------

----------------------------------------------------------------------------
--0--0--0--0--0--0----------------------------------------------------------
--------------------0--0--0--0--0--0----------------------------------------
----------------------------------------0--0--0--0--0--0--0--0--0--0--0--0--

----------------------------------------------------------------------------
----------------------------------------0--0--0--0--0--0--0--0--0--0--0--0--
--------------------3--3--3--3--3--3----------------------------------------
--0--0--0--0--0--0----------------------------------------------------------

------------------------------------------------------------------------
--0--0--0--0--0--0------------------------------------------------------
------------------------------------------------------------------------
--------------------0--0--0--0--0--0----0----0--0--0----0----0--0--0----

---------------------------------------------------------------------
---------------------------------------------------------------------
---------------------------------------------------------------------
--0----0--0--0----0----0--0--0--0----0----0--0--0----0----0--0--0----

------------------------------------------------------------------
------------------------------------------------------------------
-----------------
Добавлено: 05.11.2013
Другие материалы по этой песне:

Страница создана 21.02.2012
http://primanota.ru/nightwish/end-of-all-hope-chords.htm
Привет, Гость.
Предлагаем пройти революционный курс по гитаре.
Подарок от PrimaNota.Ru, забирай!