PrimaNota.ru - самый крупный в мире бесплатный архив песенных текстов, аккордов, табулатур и нот


Nightwish - Beauty And The Beast - аккорды и текст, таба, бас-таба, видео

Регистрация Запомнить меня
Войти через:  Facebook Google Twitter Vk Yandex Mail.ru

Nightwish - Beauty And The Beast - аккорды и текст, таба, бас-таба, видео

Печатать
Просмотров: 342
Авторы музыки: Nightwish
Авторы текста: Tuomas Holopainen
Beauty And The Beast
Nightwish
Am            F            G
Remember the first dance we shared?
             Dm          Am7
Recall the night you melted my ugliness away?
                  F            G
The night you left with a kiss so kind
                 Cm            Hm
Only a send of beauty left behind
 
Am          D
Ah dear friend I remember the night
     F             Am         G
The moon and the dreams we shared
Am                Dm
Your trembling paw in my hand
                  F
Dreaming of that northern land
            Am         G(3)
Touching me with a kiss of a beast

I know my dreams are made of you
Of you and only for you
Your ocean pulls me under
Your voice tears me asunder
Love me before the last petal falls

As a world without a glance
Of the ocean's fair expanse
Such the world would be
If no love did flow in thee
But as my heart is occupied
Your love for me now has to die
Forgive me I need more than you can offer me

Соло:		[E----------------------------------------------2--1--
B-------------------------------4--2--1--2--4--------
G-----------------------1----3-----------------------
D--6--4--3--1~-1--3--4-------------------------------
A----------------------------------------------------
E----------------------------------------------------

---------------------------------------------------------------------2--
--4--2----------------------------------1-----4----2~-------1--2--4-----
--------------1-------------------3-------------------------------------
--------4--4-----4--3----------3-----3-----3----------------------------
------------------------------------------------------------------------
------------------------------------------------------------------------

--1----------------------------------------
-----4--2--2~---1--2--1~-------------------
-------------------------------------------
-------------------------------------------
-------------------------------------------
-------------------------------------------]

Gm       F         B       F
However cold the wind and rain
Gm        F       Cm         Gm
I'll be there to ease your pain
However cruel the mirrors of sin
Remember beauty is found within

-

Bass
speed gets faster on start and slower on bar 126

[G--------------------------------------------------------------------
D--------------------------------------------------------------------
A--------------------------------------------------------------------
E--------------------------------------------------------------------

------------------------------------------------------------------
------------------------------------------------------------------
------------------------------------------------------------------
--0----0----0----0------0----0----0----0------0----0----0----0----

-----------------------------------------------------------
-----------------------------------------------------------
-----------------------------------------------------------
--0--------------0----0----0----0------0----0----0----0----

-----------------------------------------------------------
-----------------------------------------------------------
-----------------------------------------------------------
--0----0----0----0------0--------------0----0----0----0----

-----------------------------------------------------------
-----------------------------------------------------------
-----------------------------------------------------------
--0----0----0----0------0----0----0----0------0------------

--------------------------------------------------------------------
--------------------------------------------------------------------
--------------------------------------------------------------------
--3-3-3-3-3-3-3-3-3-3-3-3-3-3-3-3---3-3-3-3-3-3-3-3-3-3-3-3-3-3-3-3-

------------------------------------------------------------
--------------------------------------------1-1-1-1---------
----------------------------------------------------3-3-3-3-
--3-3-3-3-3-3-3-3-3-3-3-3-3-3-3-3---3-3-3-3-----------------

--------------------------------------------------------------------
--------------------------------------------------------------------
--------------------------------------------------------------------
--3-3-3-3-3-3-3-3-3-3-3-3-3-3-3-3---3-3-3-3-3-3-3-3-3-3-3-3-3-3-3-3-

------------------------------------------------------------
--------------------------------------------1-1-1-1---------
----------------------------------------------------3-3-3-3-
--3-3-3-3-3-3-3-3-3-3-3-3-3-3-3-3---3-3-3-3-----------------

------------------------------------------------------------------
------------------------------------------------------------------
------------------------------------------------------------------
--0----0----0----0------0----0----0----0------0----0----0----0----

------------------------------------------------------------
------------------------------------------------------------
------3----5------------------------------------------------
------------------0----0----0----0------0----0----0----0----

------------------------------------------------------------
----------------------------------------1----3----1----3----
----------------------------3----5--------------------------
--0----0----0----0------------------------------------------

------------------------------------------------------------------
--1----3----1----3------1----3----1----3------1----3----1----3----
------------------------------------------------------------------
------------------------------------------------------------------

------------------------------------------------------------------
--1----3----1----3------1----3----1----3------1----3----1----3----
------------------------------------------------------------------
------------------------------------------------------------------

---------------------------------------------------------
---------------------------------------------------------
--1------------------0-----------------------------------
----------------------------------------1----------------

--------------------------------------------------------------
----------------------0--------2------------------------------
------------------------------------------0----0----0----0----
--3--3--------------------------------------------------------

----------------------------------------------------------------
----------------------------------------------------------------
----------------------------------------------3-----------------
--1----1----1----1------3----3----3----3---------------3--------

----------------------------------------------------------------------
---------------------------------------0------------------------------
--0----0----0----0------------------------3--2------------------------
------------------------1----1----1---------------3----3----3----3----

----------------------------------------------------------------------
--0----0-----------------------------------------------------0--------
------------------------0----0----0----0------------------------3--2--
------------0----0----------------------------1----1----1-------------

----------------------------------------------------------------------
----------------------------------------------------------------------
------------------------3----3----------------0--0--0--0--0--0--0--0--
--3----3----3----3----------------3----3------------------------------

----------------------------------------------------
--0--0--0--0--0--0--0--0----------------------------
----------------------------------------------------
----------------------------1--1--1--1--1--1--1--1--

-----------------------------------------------------
-----------------------------------------------------
--0--0--0--0------------0----0--0--0--0--0--0--0--0--
--------------3-3--3-3-------------------------------

----------------------------------------------------
--0--0--0--0--0--0--0--0----------------------------
----------------------------------------------------
----------------------------1--1--1--1--1--1--1--1--

---------------------------------------------------------------------------
------------------------------------------------------------------0--------
--0--0--0--0------------0----0----0----0----0------------------------3--2--
--------------3-3--3-3-----------------------------1----1----1-------------

------------------------------------------------------------------
------------------------0----0------------------------------------
----------------------------------------------0----0----0----0----
--3----3----3----3----------------0----0--------------------------

----------------------------------------------------------------------
-----------------0----------------------------------------------------
--------------------3--2--------------------------3----3--------------
--1----1----1---------------3----3----3----3----------------3----3----

----------------------------------------------------
----------------------------0--0--0--0--0--0--0--0--
--0--0--0--0--0--0--0--0----------------------------
----------------------------------------------------

-----------------------------------------------------
-----------------------------------------------------
----------------------------0--0--0--0------------0--
--1--1--1--1--1--1--1--1----------------3-3--3-3-----

----------------------------------------------------
----------------------------0--0--0--0--0--0--0--0--
--0--0--0--0--0--0--0--0----------------------------
----------------------------------------------------

-----------------------------------------------------------------------
-----------------------------------------------------------------------
----------------------------0--0--0--0------------0--------------------
--1--1--1--1--1--1--1--1----------------3-3--3-3-----------------------

--------------------------------------------------------------------------
--------------------------------------------------------1--------3--------
--------------------------------------------------------------------------
--------------------------------------------------------------------------

------------------------------------------------------------
--1--------3----------1--------3----------1--------3--------
------------------------------------------------------------
------------------------------------------------------------

-------------------------------------------------------------------------
-------------------------------------------------------------------------
--1----------------------------------------------------------------------
-------------------------------------------------------------------------

------------------------------------------------------------------------
------------------------------------------------------------------------
------------------------------------------------------------------------
------------------------------------------------------------------------

------------------------------------------------------------------------
------------------------------------------------------------------------
------------------------------------------------------------------------
------------------------------------------------------------------------

-------------------------------------------------------------------------
-------------------------------------------------------------------------
-------------------------------------------------------------------------
--------------------------------------------------------2----------------

----------------------------------------------------------
----------------------------------------------------------
--4-------------------------------------------------------
---------------------4------------------3--------3--------

-----------------------------------------------------------------
-----------------------------------------------------------------
----------------0------1--------0--------------------------0-----
--1--------1-------------------------3------1--------1--3-----1--

-------------------------------------------------------------
-------------------------------------------------------------
------------------------------------0------3--------3--------
--3--------3----------1--------1-----------------------------

-------------------------------------------------------------
-------------------------------------------------------------
--1--------3--------------------------------------------0----
----------------------3--------3----------1--------1---------

----------------------------------------------------------------
----------------------------------------------------------------
--1--------0--------------------------0-------------------------
----------------3------1--------1--3-----1----3--------3--------

-------------------------------------------------------------
-------------------------------------------------------------
----------------0------3--------3----------1--------3--------
--1--------1-------------------------------------------------

----------------------------------------------------------------------
----------------------------------------------------------------------
----------------------------------------------------------------------
--3------------------------------------2----------0----0----0----0----

------------------------------------------------------------------
------------------------------------------------------------------
------------------------------------------------------------------
--0----0----0----0------0----0----0----0------0----0----0----0----

------------------------------------------------------------------
------------------------------------------------------------------
------------------------------------------------------------------
--0----0----0----0------0----0----0----0------0----0----0----0----

------------------------------------------------------------------
------------------------------------------------------------------
----------------------------------3----0--------------------------
--0----0----0----0------0----0----------------0----0----0----0----

------------------------------------------------------------------
------------------------------------------------------------------
------------3----0--------------------------------------3----0----
--0----0----------------0----0----0----0------0----0--------------

------------------------------------------------------------------
------------------------------------------------------------------
----------------------------------3----0--------------------------
--0----0----0----0------0----0----------------1----1----1----1----

------------------------------------------------------------------
------------------------------------------------------------------
------------------------------------------------------------------
--1----1----1----1------0----0----0----0------0----0----0----0----

------------------------------------------------------------------
------------------------------------------------------------------
------------------------------------------------------------------
--1----1----1----1------1----1----1----1------0----0----0----0----

------------------------------------------------------------------
------------------------------------------------------------------
--------------------------------------------------------3----0----
--0----0----0----0------0----0----0----0------0----0--------------

------------------------------------------------------------------
------------------------------------------------------------------
----------------------------------3----0--------------------------
--0----0----0----0------0----0----------------0----0----0----0----

------------------------------------------------------------------
------------------------------------------------------------------
------------3----0--------------------------------------3----0----
--0----0----------------0----0----0----0------0----0--------------

------------------------------------------------------------------
------------------------------------------------------------------
------------------------------------------------------------------
--3----3----3----3------3----3----1----1------3----3----3----3----

------------------------------------------------------------------
------------------------------------------------------------------
--1----1----3----3------------------------------------------------
------------------------3----3----3----3------3----3----1----1----

------------------------------------------------------------------
------------------------------------------------------------------
------------------------1----1----3----3--------------------------
--3----3----3----3----------------------------3----3----3----3----

------------------------------------------------------------------
------------------------------------------------------------------
----------------------------------------------1----1----3----3----
--3----3----1----1------3----3----3----3--------------------------

------------------------------------------------------------------
------------------------------------------------------------------
------------------------------------------------------------------
--3----3----3----3------3----3----1----1------3----3----3----3----

-----------------------------------------------------------
-----------------------------------------------------------
--1----1----3----3-----------------------------------------
------------------------3----------------------------------

------------------
------------------
------------------
------------------]

-

Text:		Beauty and the Beast

Remember the first dance we shared?
Recall the night you melted my ugliness away?
The night you left with a kiss so kind
Only a send of beauty left behind

Ah dear friend I remember the night
The moon and the dreams we shared
Your trembling paw in my hand
Dreaming of that northern land
Touching me with a kiss of a beast

I know my dreams are made of you
Of you and only for you
Your ocean pulls me under
Your voice tears me asunder
Love me before the last petal falls

As a world without a glance
Of the ocean's fair expanse
Such the world would be
If no love did flow in thee
But as my heart is occupied
Your love for me now has to die
Forgive me I need more than you can offer me

Didn't you read the tale
Where happily ever after was to kiss a frog?
Don't you know this tale
In which all I ever wanted
I'll never have
For who could ever learn to love a beast?

However cold the wind and rain
I'll be there to ease your pain
However cruel the mirrors of sin
Remember beauty is found within

...Forever shall the wolf in me desire the sheep in you...

-

Перевод:	"Красавица и чудовище"

Помнишь первый танец, что мы разделили?
Помнишь ли ночь, когда моё уродство исчезло?
Когда ты покинула меня с таким тёплым поцелуем,
Оставив лишь аромат своей красоты.

О, милый друг, я помню эту ночь,
Луну и мечты, что разделеили мы.
Твоя лапа дрожала в моей руке,
Я мечтала о той северной стране,
Ты коснулся меня поцелуем зверя.

Я знаю мои мечты созданы тобой,
Тобой и лишь для тебя.
Твой океан поглотил меня,
Твой голос разорвал меня на части,
Люби меня, пока не упал последний лепесток.

Пока мир без блеска
Волшебного пространство океана...
Каким будет мир,
Если в тебе нет любви?
Но пока занято моё сердце,
Мертва твоя любовь для меня.
Прости меня, мне нужно больше, чем ты мог бы дать.

Читал ли ты сказку,
Где после поцелуя лягушки приходит счастье?
Знаешь ли ту историю,
В которой всё, о чём я мечтаю,
Я никогда не получу?
Кого можно научить любить чудовище?

Однако холодны ветер и дождь...
Я буду там, чтоб облегчить твою боль,
Но жестокость - это зеркало греха,
Запомни - скрыта внутри красота.

...Всегда будет волк, что во мне, желать твоего агнца...

-

Перевод:	Красавица и Чудовище

"Ты помнишь первый танец наш?
Ты помнишь ночь, когда мое уродство смыла ты?
В ту ночь ушла, поцеловав лишь раз,
Оставив лишь дыханье, память дивной красоты".

О, другой мой дорогой, я помню эту ночь,
То под луной, среди мечтаний мы сияли,
И лапой руку мне сжимал - сияла ночь,
Коснулся поцелуем зверя и о землях северных мечтали.

Я знаю, что мои мечты все из тебя исходят,
Да - из тебя, и из меня, и голос твой рвет меня на части,
Твой океан накрыл меня собою, ветры верховодят,
Люби, когда последний лепесток стал жертвую огня

"Как мир лишенный океанского очарованья,
Таков он без твоей любви,
Но так как сердце полно уж звериного рычанья,
Простите, но любовь что смерть, и меня ты больше не зови".

Вы не читали сказку об обретенном счастье,
Которое, поцеловав лягушку, можно обрести?
В рассказе этом все - и мудрость наша и напастье,
Любовь вы к звери сможете ль в себе нести?

Кругом же холод, ветер, дождь,
И так легко тебе страданье причинить,
Кругом все зеркала греха в них правды гвоздь,
Запомни, красота всегда внутри то будет жить".

...И Навсегда Во мне Есть Волк, а в Вас Живет Овца...

-

Guitar 1.
speed gets faster on start and slower on bar 126

[E--------------------------------------------------------------------
B--------------------------------------------------------------------
G--------------------------------------------------------------------
D--------------------------------------------------------------------
A--------------------------------------------------------------------
E--------------------------------------------------------------------

--------------------------------------------------------------------
--------------------------------------------------------------------
--------------------------------------------------------------------
--------------------------------------------------------------------
--------------------------------------------------------------------
--------------------------------------------------------------------

--------------------------------------------------------------------
--------------------------------------------------------------------
--------------------------------------------------------------------
--------------------------------------------------------------------
--------------------------------------------------------------------
--------------------------------------------------------------------

--------------------------------------------------------------------
--------------------------------------------------------------------
--------------------------------------------------------------------
--------------------------------------------------------------------
--------------------------------------------------------------------
--------------------------------------------------------------------

--------------------------------------------------------------------
--------------------------------------------------------------------
--------------------------------------------------------------------
--------------------------------------------------------------------
--------------------------------------------------------------------
--------------------------------------------------------------------

--------------------------------------------------------------------
--------------------------------------------------------------------
--------------------------------------------------------------------
--------------------------------------------------------------------
--------------------------------------------------------------------
--------------------------------------------------------------------

--------------------------------------------------------------------
--------------------------------------------------------------------
--------------------------------------------------------------------
--------------------------------------------------------------------
--------------------------------------------------------------------
--------------------------------------------------------------------

--------------------------------------------------------------------
--------------------------------------------------------------------
--------------------------------------------------------------------
--------------------------------------------------------------------
--------------------------------------------------------------------
--------------------------------------------------------------------

------------------------------------------------------------------------
------------------------------------------------------------------------
------------------------------------------------------------------------
------------------------------------------------------------------------
------------------------------------------------------------------------
------------------------------------------------------------------------

------------------------------------------------------------------------
------------------------------------------------------------------------
------------------------------------------------------------------------
------------------------------------------------------------------------
------------------------------------------------------------------------
------------------------------------------------------------------------

------------------------------------------------------------------------
------------------------------------------------------------------------
------------------------------------------------------------------------
------------------------------------------------------------------------
------------------------------------------------------------------------
------------------------------------------------------------------------

------------------------------------------------------------------------
------------------------------------------------------------------------
------------------------------------------------------------------------
------------------------------------------------------------------------
------------------------------------------------------------------------
------------------------------------------------------------------------

------------------------------------------------------------------------
------------------------------------------------------------------------
------------------------------------------------------------------------
------------------------------------------------------------------------
------------------------------------------------------------------------
------------------------------------------------------------------------

------------------------------------------------------------------------
------------------------------------------------------------------------
------------------------------------------------------------------------
------------------------------------------------------------------------
------------------------------------------------------------------------
------------------------------------------------------------------------

------------------------------------------------------------------------
------------------------------------------------------------------------
------------------------------------------------------------------------
------------------------------------------------------------------------
------------------------------------------------------------------------
------------------------------------------------------------------------

------------------------------------------------------------------------
------------------------------------------------------------------------
------------------------------------------------------------------------
------------------------------------------------------------------------
------------------------------------------------------------------------
------------------------------------------------------------------------

------------------------------------------------------------------------
------------------------------------------------------------------------
------------------------------------------------------------------------
------------------------------------------------------------------------
------------------------------------------------------------------------
------------------------------------------------------------------------

------------------------------------------------------------------------
------------------------------------------------------------------------
------------------------------------------------------------------------
------------------------------------------------------------------------
------------------------------------------------------------------------
------------------------------------------------------------------------

------------------------------------------------------------------------
------------------------------------------------------------------------
------------------------------------------------------------------------
------------------------------------------------------------------------
------------------------------------------------------------------------
------------------------------------------------------------------------

------------------------------------------------------------------------
------------------------------------------------------------------------
------------------------------------------------------------------------
------------------------------------------------------------------------
------------------------------------------------------------------------
------------------------------------------------------------------------

------------------------------------------------------------------------
------------------------------------------------------------------------
------------------------------------------------------------------------
------------------------------------------------------------------------
------------------------------------------------------------------------
------------------------------------------------------------------------

------------------------------------------------------------------------
------------------------------------------------------------------------
------------------------------------------------------------------------
------------------------------------------------------------------------
------------------------------------------------------------------------
------------------------------------------------------------------------

------------------------------------------------------------------------
------------------------------------------------------------------------
------------------------------------------------------------------------
------------------------------------------------------------------------
------------------------------------------------------------------------
------------------------------------------------------------------------

------------------------------------------------------------------------
------------------------------------------------------------------------
------------------------------------------------------------------------
------------------------------------------------------------------------
------------------------------------------------------------------------
------------------------------------------------------------------------

-------------------------------------------------11----9------8--9--11--
------------------------------------------------------------------------
--13--------11------10----8--------11----10-----------------------------
------------------------------------------------------------------------
------------------------------------------------------------------------
------------------------------------------------------------------------

--14------13--11------9----------------------------------------------------
-----------------------------------------------------------11------13------
---------------------------11------------11------10------------10------10--
---------------------------------------------------------------------------
---------------------------------------------------------------------------
---------------------------------------------------------------------------

-----------------------------------------------------------------------------
--13----11------9--11--13----16------14--13----------------------------------
-----------------------------------------------15------13------------13--15--
-----------------------------------------------------------------------------
-----------------------------------------------------------------------------
-----------------------------------------------------------------------------

--------------------------------------------------------------------------
--------------------------------------------------------------------------
--13----------------------------------------------------------------------
--------------------------------------------------------------------------
--------------------------------------------------------------------------
--------------------------------------------------------------------------

------------------------------------------------------------------------
------------------------------------------------------------------------
------------------------------------------------------------------------
------------------------------------------------------------------------
------------------------------------------------------------------------
------------------------------------------------------------------------

------------------------------------------------------------------------
------------------------------------------------------------------------
------------------------------------------------------------------------
------------------------------------------------------------------------
------------------------------------------------------------------------
------------------------------------------------------------------------

------------------------------------------------------------------------
------------------------------------------------------------------------
------------------------------------------------------------------------
------------------------------------------------------------------------
------------------------------------------------------------------------
------------------------------------------------------------------------

----------------------------------------------------------------
----------------------------------------------------------------
----------------------------------------------------------------
----------------------------------------------------------------
----------------------------------------------------------------
----------------------------------------------------------------

------------------------------------------------------------------------
------------------------------------------------------------------------
------------------------------------------------------------------------
------------------------------------------------------------------------
------------------------------------------------------------------------
------------------------------------------------------------------------

------------------------------------------------------------------------
------------------------------------------------------------------------
------------------------------------------------------------------------
------------------------------------------------------------------------
------------------------------------------------------------------------
------------------------------------------------------------------------

------------------------------------------------------------------------
------------------------------------------------------------------------
------------------------------------------------------------------------
------------------------------------------------------------------------
------------------------------------------------------------------------
------------------------------------------------------------------------

------------------------------------------------------
------------------------------------------------------
------------------------------------------------------
------------------------------------------------------
------------------------------------------------------
------------------------------------------------------

------------------------------------------------------------------------
------------------------------------------------------------------------
------------------------------------------------------------------------
--------3--2--------3------------3--------------------------------------
------------------------------------------8-7-5-------------------------
----1-1---------1-1----------1-1----------------8-7-5-------------------

------------------------------------------------------------------------
------------------------------------------------------------------------
------------------------------------------------------------------------
--------------------------3--2--------3------------3--------------------
------------------------------------------------------------8-7-5-------
----------------------1-1---------1-1----------1-1----------------8-7-5-

----------------------------------------------------------------------------
----------------------------------------------------------------------------
----------------------------------------------------------------------------
--------14------------------------------------------------------------------
----7-7---------------------------------------------------------------------
----------------------------------------------------------------------------

------------------------------------------------------------------------
------------------------------------------------------------------------
------------------------------------------------------------------------
------------------------------------------------------------------------
------------------------------------------------------------------------
------------------------------------------------------------------------

------------------------------------------------------------------------
------------------------------------------------------------------------
------------------------------------------------------------------------
------------------------------------------------------------------------
------------------------------------------------------------------------
------------------------------------------------------------------------

------------------------------------------------------------------------
------------------------------------------------------------------------
------------------------------------------------------------------------
------------------------------------------------------------------------
------------------------------------------------------------------------
------------------------------------------------------------------------

------------------------------------------------------------------------
------------------------------------------------------------------------
------------------------------------------------------------------------
------------------------------------------------------------------------
------------------------------------------------------------------------
------------------------------------------------------------------------

------------------------------------------------------------------------
------------------------------------------------------------------------
------------------------------------------------------------------------
------------------------------------------------------------------------
------------------------------------------------------------------------
------------------------------------------------------------------------

------------------------------------------------------------------------
------------------------------------------------------------------------
------------------------------------------------------------------------
------------------------------------------------------------------------
------------------------------------------------------------------------
------------------------------------------------------------------------

------------------
------------------
------------------
------------------
------------------
------------------]

-

Guitar 2.
speed gets faster on start and slower on bar 126

[E----------------------------------------------------------------------
B----------------------------------------------------------------------
G------------------------------------------------------------5----7----
D------------------------------------------------------------5----7----
A------------------------------------------------------------3----5----
E----------------------------------------------------------------------

-----------------------------------------------------------------------
-----------------------------------------------------------------------
-------------------------------------------------------------5----7----
--2----------------------------------------------------------5----7----
--2----------------------------------------------------------3----5----
--0--------------------------------------------------------------------

-----------------------------------------------------------------------
-----------------------------------------------------------------------
-------------------------------------------------------------5----7----
--2----------------------------------------------------------5----7----
--2----------------------------------------------------------3----5----
--0--------------------------------------------------------------------

-----------------------------------------------------------------------
-----------------------------------------------------------------------
-------------------------------------------------------------5----7----
--2----------------------------------------------------------5----7----
--2----------------------------------------------------------3----5----
--0--------------------------------------------------------------------

--------------------------------------------------------------------
--------------------------------------------------------------------
--------------------------------------------------------------------
--------------------------------------------------------------------
--------------------------------------------------------------------
--3-3-3-3-3-3-3-3-3-3-3-3-3-3-3-3---3-3-3-3-3-3-3-3-3-3-3-3-3-3-3-3-

------------------------------------------------------
------------------------------------------------------
--------------------------------------------8----5----
--------------------------------------------8----5----
--------------------------------------------6----3----
--3-3-3-3-3-3-3-3-3-3-3-3-3-3-3-3---3-3-3-3-----------

--------------------------------------------------------------------
--------------------------------------------------------------------
--------------------------------------------------------------------
--------------------------------------------------------------------
--------------------------------------------------------------------
--3-3-3-3-3-3-3-3-3-3-3-3-3-3-3-3---3-3-3-3-3-3-3-3-3-3-3-3-3-3-3-3-

------------------------------------------------------
------------------------------------------------------
--------------------------------------------8----5----
--------------------------------------------8----5----
--------------------------------------------6----3----
--3-3-3-3-3-3-3-3-3-3-3-3-3-3-3-3---3-3-3-3-----------

----------------------------------------------------------
----------------------------------------------------------
----------------------------------------------------------
----------------------------------------------------------
-----2--0-----------0--2-------2--0-----3--2--0-----------
--0--------3--2--3----------0--------3-----------3--2--0--

--------------------------------------------------------------------
--------------------------------------------------------------------
--------------------------------5----7------------------------------
--------------------------------5----7------------------------------
-----2--0-----------0--2--------3----5---------2--0-----------0--2--
--0--------3--2--3--------------------------0--------3--2--3--------

--------------------------------------------------------------------------
--------------------------------------------------------------------------
----------------------------------------------------------------5----7----
----------------------------------------------------------------5----7----
-----2--0-----3--2--0----------------2--0-----------0--2--------3----5----
--0--------3-----------3--2--0----0--------3--2--3------------------------

------------------------------------------------------------------------
------------------------------------------------------------------------
--8----10----8----10------8----10----8----10------8----10----8----10----
--8----10----8----10------8----10----8----10------8----10----8----10----
--6----8-----6----8-------6----8-----6----8-------6----8-----6----8-----
------------------------------------------------------------------------

------------------------------------------------------------------------
------------------------------------------------------------------------
--8----10----8----10------8----10----8----10------8----10----8----10----
--8----10----8----10------8----10----8----10------8----10----8----10----
--6----8-----6----8-------6----8-----6----8-------6----8-----6----8-----
------------------------------------------------------------------------

--------------------------------------------------------------
--------------------------------------------------------------
--8----10----8----10------------------------------------------
--8----10----8----10------8------------------2----------------
--6----8-----6----8-------8------------------0----------------
--------------------------6-----------------------------------

-----------------------------------------------------------
-----------------------------------------------------------
-----------------------------------------------------------
-----------------------------------------7--------9--------
--3------------------5--5----------------5--------7--------
--1------------------3--3----------------------------------

---------------------------------------------------------
---------------------------------------------------------
---------------------------------------------------------
--2------------------------------------------------------
--0------------------3------------------5----------------
---------------------1------------------3----------------

--------------------------------------------------
--------------------------------------------------
--------------------------------------------------
--5-------------------2------2------2------2------
--3--------5----------0--0-0-0--0-0-0--0-0-0--0-0-
-----------3--------------------------------------

--------------------------------------------------------------
--------------------------------------------------------------
--------------------------------------------------------------
--------------------------------------------------------------
--3------3------3------5--3--2----5------5------5------5------
--1--1-1-1--1-1-1--1-1------------3--3-3-3--3-3-3--3-3-3--3-3-

-------------------------------------------------------
-------------------------------------------------------
-------------------------------------------------------
--7------------------------2------2------2------2------
--5--------5--7-7-5--7-7---0--0-0-0--0-0-0--0-0-0--0-0-
-------------------------------------------------------

--------------------------------------------------------------
--------------------------------------------------------------
--------------------------------------------------------------
--------------------------------------------------------------
--3------3------3------5--3--2----5------5------5------5------
--1--1-1-1--1-1-1--1-1------------3--3-3-3--3-3-3--3-3-3--3-3-

----------------------------------------------------------
----------------------------------------------------------
-----------------------------------------2----------------
--5-------------------2------------------0----------------
--3--------5----------0-----------------------------------
-----------3----------------------------------------------

-------------------------------------------------------------
-------------------------------------------------------------
-------------------------------------------------------------
---------------------2------------------2--------------------
--3------------------0--------5-5--5-5--0--------------------
--1---------------------------3-3--3-3-----------------------

-------------------------------------------------------------
-------------------------------------------------------------
--2----------------------------------------------------------
--0-------------------------------------2--------------------
---------------------3------------------0--------5-5--5-5----
---------------------1---------------------------3-3--3-3----

--------------------------------------------------------------
--------------------------------------------------------------
--------------------------------------------------------------
--2------2------2------2--------------------------------------
--0--0-0-0--0-0-0--0-0-0--0-0---3------3------3------5--3--2--
--------------------------------1--1-1-1--1-1-1--1-1----------

-------------------------------------------------------
-------------------------------------------------------
--------------------------------2----------------------
--------------------------------0----------------------
--5------5------5------5-----------------5--7-7-5--7-7-
--3--3-3-3--3-3-3--3-3-3--3-3--------------------------

--------------------------------------------------------------
--------------------------------------------------------------
--------------------------------------------------------------
--2------2------2------2--------------------------------------
--0--0-0-0--0-0-0--0-0-0--0-0---3------3------3------5--3--2--
--------------------------------1--1-1-1--1-1-1--1-1----------

---------------------------------------------------------------------
---------------------------------------------------------------------
---------------------------------------------------------------------
--------------------------------5-------------------2----------------
--5------5------5------5--------3--------5----------0----------------
--3--3-3-3--3-3-3--3-3-3--3-3------------3---------------------------

--------------------------------------------------------------
--------------------------------------------------------------
--2-----------------------------------------------------------
--0-------------------------------------2------------------2--
---------------------3------------------0--------5-5--5-5--0--
---------------------1---------------------------3-3--3-3-----

--------------------------------------------------------
--------------------------------------------------------
--------------------2-----------------------------------
--------------------0-----------------------------------
---------------------------------------3----------------
---------------------------------------1----------------

-----------------------------------------------------------
-----------------------------------------------------------
-----------------------------------------------------------
--2--------------------------------------------------------
--0--------5-5--5-5----------------------------------------
-----------3-3--3-3----------------------------------------

---------------------------------------------------------
---------------------------------------------------------
--------------------------------------8--------10--------
--------------------------------------8--------10--------
--------------------------------------6--------8---------
---------------------------------------------------------

---------------------------------------------------------------
---------------------------------------------------------------
--8--------10----------8--------10----------8--------10--------
--8--------10----------8--------10----------8--------10--------
--6--------8-----------6--------8-----------6--------8---------
---------------------------------------------------------------

-------------------------------------------------------------------------
-------------------------------------------------------------------------
-------------------------------------------------------------------------
--8----------------------------------------------------------------------
--8----------------------------------------------------------------------
--6----------------------------------------------------------------------

------------------------------------------------------------------------
------------------------------------------------------------------------
------------------------------------------------------------------------
------------------------------------------------------------------------
------------------------------------------------------------------------
------------------------------------------------------------------------

----------------------------6----8----------------------------------------
--------------------------------------------------------------------------
--------------------------------------------------------------------------
--------------------------------------------------------------------------
--------------------------------------------------------------------------
--------------------------------------------------------------------------

----------------------------9------11--8----11----9------8--9--11--
-------------------------------11----------------------------------
-------------------------------------------------------------------
-------------------------------------------------------------------
-------------------------------------------------------------------
-------------------------------------------------------------------

--14------13--11------------------------------------------------------
--------------------14------14------------13--14----13----------------
----------------------------------------------------------------------
----------------------------------------------------------------------
----------------------------------------------------------------------
----------------------------------------------------------------------

----------------------------------------------------------------------------
----------------------------------------------------------------------------
----------------------------------------------------------------------------
----------------------------------------3-----------------------------------
--5------------------3------------------1------------------3----------------
--3------------------1-------------------------------------1----------------

---------------------------------------------------------
---------------------------------------------------------
---------------------------------------------------------
----------------------------------------5----------------
--5------------------3------------------3----------------
--3------------------1-----------------------------------

----------------------------------------------------------
----------------------------------------------------------
----------------------------------------------------------
--3--------5----------------------------------------------
--1--------3----------5------------------3----------------
----------------------3------------------1----------------

----------------------------------------------------------------------------
----------------------------------------------------------------------------
----------------------------------------------------------------------------
--3-------------------------------------------------------------------------
--1------------------3------------------5------------------3----------------
---------------------1------------------3------------------1----------------

----------------------------------------------------------------------------
----------------------------------------------------------------------------
----------------------------------------------------------------------------
--5------------------3--------5---------------------------------------------
--3------------------1--------3----------5----------------------------------
-----------------------------------------3----------------------------------

------------------------------------------------------------------
------------------------------------------------------------------
------------------------------------------------------------------
---------------------------------------------------------
Добавлено: 04.09.2013
Другие материалы по этой песне:

Страница создана 03.03.2012
http://primanota.ru/nightwish/beauty-and-the-beast-chords.htm
Привет, Гость.
Предлагаем пройти революционный курс по гитаре.
Подарок от PrimaNota.Ru, забирай!